Song name
# A B C D E F G H I J K L M N O P Q R S T U V W X Y Z

Marmaduke Duke - Silhouettes tab

Song: Silhouttes
Artist: Marmaduke Duke
Album: Duke Pandemonium

Verse 1
E|-------------------------------------------------|
B|-------------------------------------------------|
G|------9----------------------9-------------------|
D|----------7-7--7-7-9-------------7-7--7-7-9------|
A|--9-------------------7--9-------------------7---|
E|-------------------------------------------------|

E|-------------------------------------------------|
B|-------------------------------------------------|
G|------9----------------------9-------------------|
D|----------7-7--7-7-9-------------7-7--7-7-9------|
A|--9-------------------7--9-------------------9---|
E|-------------------------------------------------|

E|-------------------------------------------------|
B|-------------------------------------------------|
G|-------------------------------------------------|
D|-------------------------------------------------|
A|--7--7--7-7--7-7--7--7--7---7--7-7--7-7--7-8-----|
E|-------------------------------------------------|

E|-------------------------------------------------|
B|-------------------------------------------------|
G|------9----------------------9-------------------|
D|----------7-7--7-7-9-------------7-7--7-7-9------|
A|--9-------------------7--9-------------------9---|
E|-------------------------------------------------|


Verse 2
(Repeat Verse 1)


Chorus
E|---------------------------------------------------|
B|--7--7--7--7--9--9--9--9--10-10-10-10-10-10-10-10--|
G|--7--7--7--7--9--9--9--9--11-11-11-11-11-11-11-11--|
D|--7--7--7--7--9--9--9--9--11-11-11-11-11-11-11-11--|
A|---------------------------------------------------|
E|---------------------------------------------------|

E|---------------------------------------------------|
B|--7--7--7--7--9--9--9--9--10-10-10-10--9--9--9--9--|
G|--7--7--7--7--9--9--9--9--11-11-11-11-11-11-11-11--|
D|--7--7--7--7--9--9--9--9--11-11-11-11-11-11-11-11--|
A|---------------------------------------------------|
E|---------------------------------------------------|

E|---------------------------------------------------|
B|--7--7--7--7--9--9--9--9--10-10-10-10-10-10-10-10--|
G|--7--7--7--7--9--9--9--9--11-11-11-11-11-11-11-11--|
D|--7--7--7--7--9--9--9--9--11-11-11-11-11-11-11-11--|
A|---------------------------------------------------|
E|---------------------------------------------------|

E|--------------------|
B|--7--7--7--7--9-----|
G|--7--7--7--7--9-----|
D|--7--7--7--7--9-----|
A|--------------------|
E|--------------------|

Instrumental
E|-------------------------------------------------|
B|-------------------------------------------------|
G|------9----------------------9-------------------|
D|----------7-7--7-7-9-------------7-7--7-7-9------|
A|--9-------------------7--9-------------------7---|
E|-------------------------------------------------|

E|------------------------------|
B|------------------------------|
G|------9-----------------------|
D|----------7-7--7-7-9----------|
A|--9-------------------7--9----|
E|------------------------------|

That's all for the time being. The rest will be up soon
Tap to rate this tab
# A B C D E F G H I J K L M N O P Q R S T U V W X Y Z