Song name
# A B C D E F G H I J K L M N O P Q R S T U V W X Y Z

Marmaduke Duke - Everybody Dance tab

Everybody Dance - Marmaduke duke
Tabbed by: David H
Tuning :drop D

Until the song is released on "part 2" it can be found at www.myspace.com/magnificentduke  

e|-12-12-12-12-14-12-|
B|-12-12-12-12-12-12-|
G|-12-12-12-12-12-12-|
D|-------------------|
A|-------------------| x16
D|-------------------|

e|-----------------|
B|-----------------|
G|-----------------|
D|-9----7----------|
A|-9----7----------|
D|-9----7----------|

e|-14-14-14-14-16-14--|
B|-14-14-14-14-14-14--|
G|-14-14-14-14-14-14--|
D|--------------------|
A|--------------------| x2
D|--------------------|

e|-12-12-12-12-14-12-|
B|-12-12-12-12-12-12-|
G|-12-12-12-12-12-12-|
D|-------------------|
A|-------------------| x4
D|-------------------|

e|-----------------|
B|-----------------|
G|-----------------|
D|-9----7----------|
A|-9----7----------|
D|-9----7----------|

e|-14-14-14-14-16-14--|
B|-14-14-14-14-14-14--|
G|-14-14-14-14-14-14--|
D|--------------------|
A|--------------------| x2
D|--------------------|

e|-12-12-12-12-14-12-|
B|-12-12-12-12-12-12-|
G|-12-12-12-12-12-12-|
D|-------------------|
A|-------------------| x2
D|-------------------|

e|-14-14-14-14-14--|
B|-12-12-12-12-12--|
G|-12-12-12-12-12--|
D|-----------------|
A|-----------------| x2
D|-----------------|

e|-12-12-12-12-14-12-|
B|-12-12-12-12-12-12-|
G|-12-12-12-12-12-12-|
D|-------------------|
A|-------------------| x2
D|-------------------|

e|-14-14-14-14-14--|
B|-12-12-12-12-12--|
G|-12-12-12-12-12--|
D|-----------------|
A|-----------------| x2
D|-----------------|

Drum  break

e|-14-14-14-14-16-14--|
B|-14-14-14-14-14-14--|
G|-14-14-14-14-14-14--|
D|--------------------|
A|--------------------| x2
D|--------------------|

e|-12-12-12-12-14-12-|
B|-12-12-12-12-12-12-|
G|-12-12-12-12-12-12-|
D|-------------------|
A|-------------------| x2
D|-------------------|

e|-14-14-14-14-14--|
B|-12-12-12-12-12--|
G|-12-12-12-12-12--|
D|-----------------|
A|-----------------| x2
D|-----------------|

e|-12-12-12-12-14-12-|
B|-12-12-12-12-12-12-|
G|-12-12-12-12-12-12-|
D|-------------------|
A|-------------------| x2
D|-------------------|

e|-14-14-14-14-14--|
B|-12-12-12-12-12--|
G|-12-12-12-12-12--|
D|-----------------|
A|-----------------| x2
D|-----------------|

e|-12-12-12-12-14-12-|
B|-12-12-12-12-12-12-|
G|-12-12-12-12-12-12-|
D|-------------------|
A|-------------------| x2
D|-------------------|

e|-14-14-14-14-14--|
B|-12-12-12-12-12--|
G|-12-12-12-12-12--|
D|-----------------|
A|-----------------| x2
D|-----------------|

e|-12-12-12-12-14-12-|
B|-12-12-12-12-12-12-|
G|-12-12-12-12-12-12-|
D|-------------------|
A|-------------------| x2
D|-------------------|

e|-14-14-14-14-14--|
B|-12-12-12-12-12--|
G|-12-12-12-12-12--|
D|-----------------|
A|-----------------| x2
D|-----------------|

e|----------------------------------|
B|----------------------------------|
G|-77-99---44-55---77-99--4-9-7-5---|
D|-77-99---44-55---77-99--4-9-7-5---|
A|-55-77---22-33---55-77--2-7-5-3---| x4
D|----------------------------------|

e|-12-12-12-12---|
B|-12-12-12-12---| improvise a funky rhythm with this chord
G|---------------|
D|---------------|
A|---------------| x8
D|---------------|

Guitar I
e|----------------------------------|
B|----------------------------------|
G|-77-99---44-55---77-99--4-9-7-5---|
D|-77-99---44-55---77-99--4-9-7-5---|
A|-55-77---22-33---55-77--2-7-5-3---| x2
D|----------------------------------|
Guitar II
e|-15-15-15-15-14-12---15-15-15-15-14----|
B|-12-12-12-12-12-12---12-12-12-12-12----|
G|-12-12-12-12-12-12---12-12-12-12-12----|
D|---------------------------------------|
A|---------------------------------------|x4
D|---------------------------------------|

Guitar I
e|---------|
B|---------|
G|-77-99---|
D|-77-99---|
A|-55-77---|
D|---------| x8
Guitar II
e|-12-12-12-12---|
B|-12-12-12-12---| improvise a funky rhythm with this chord
G|---------------|
D|---------------|
A|---------------| x8
D|---------------|

End with
e|---------|
B|---------|
G|-77-99---|
D|-77-99---|
A|-55-77---|
D|---------|



Enjoy!


Tap to rate this tab
# A B C D E F G H I J K L M N O P Q R S T U V W X Y Z