Guitaretab - guitar tabs
Song name
# A B C D E F G H I J K L M N O P Q R S T U V W X Y Z

Maroon 5 - This Love tab

THIS LOVE
MAROON 5
From the album "SONGS ABOUT JANE"
Tabs by Ray R.
e-mail add: super_rayfox@yahoo.com
it's not 100% accurate though it can help
Guitar 1: standard tuning
Guitar 2: standard tuning
Intro:
 Guitar 1: with distortion...with piano
|---------------------------------------------------------|
|---------------------------------------------------------|
|---------------------------------------------------------|
|------------------5--4--3----3---------------------------|
|--2----2--5--3------------------6--5-------1--2----------|
|----------------------------------------4----------------|
 Guitar 1:
   G/B             Cm
|---------------------------------------------------------|
|---------------------------------------------------------|
|---------------------------------------------------------|
|------------------5--4--3----3---------------------------|
|--2----2--5--3------------------6--5-------1--2----------|
|----------------------------------------4----------------|
| Guitar 2:  	  |
|--7--7--x--7--7---8--8--x--8---8--8--x--8---7--7--x-77--|
|--6--6--x--6--6---8--8--x--8---9--9--x--9---6--6--x-66--|
|--7--7--x--7--7---8--8--x--8---8--8--x--8---7--7--x-77--|
|---------------------------------------------------------|
|---------------------------------------------------------|
|---------------------------------------------------------|
| Guitar 3:
|---------------------------------------------------------|
|-------------------------8-----------6-------------------|
|----7--------8--------------------7----------------------|
|---------------------------------------------------------|
|---------------------------------------------------------|
|---------------------------------------------------------|
Verse 1:
 Guitar 1:
                                     Fm7/C
|---------------------------------------------------------|
|---------------------------------------------------------|
|---------------------------------------------------------|
|----------------------5--4--3----------------------------|
|--2----2---5---3-----------------------------------------|
|---------------------------------------------------------|
| Guitar 2:                                               |
|--7--7--x--7--7---8--8--x--8----------8--8--x--8---------|
|--6--6--x--6--6---8--8--x--8----------9--9--x--9---------|
|--7--7--x--7--7---8--8--x--8----------8--8--x--8---------|
|---------------------------------------------------------|
|---------------------------------------------------------|
|---------------------------------------------------------|
I was so high I did not recognize the fire burning in her eyes
 Guitar 1:
              G/B
|-------------------------------------------------------|
|-------------------------------------------------------|
|-------------------------------------------------------|
|------3------------------------------------------------|
|----------6---5---------1--2---------------------------|
|--------------------4----------------------------------|
| Guitar 2:                                             |
|-----7---7---x---7---7---------------------------------|
|-----6---6---x---6---6---------------------------------|
|-----7---7---x---7---7---------------------------------|
|-------------------------------------------------------|
|-------------------------------------------------------|
|-------------------------------------------------------|
   the chaos that controlled my mind
 Guitar 1:
                            Cm                Fm7/C
|-------------------------------------------------------|
|-------------------------------------------------------|
|-------------------------------------------------------|
|----------------------5--4--3--------3-----------------|
|--2----2---5---3-------------------------6----5--------|
|-------------------------------------------------------|
| Guitar 2:                                             |
|--7--7--x--7--7---8--8--x--8-------------8--8--x--8----|
|--6--6--x--6--6---8--8--x--8-------------9--9--x--9----|
|--7--7--x--7--7---8--8--x--8-------------8--8--x--8----|
|-------------------------------------------------------|
|-------------------------------------------------------|
|-------------------------------------------------------|
Whispered goodbye and she got on a plane never to return again
 Guitar 1:
                   G/B
|-------------------------------------------------------|
|-------------------------------------------------------|
|-------------------------------------------------------|
|-------------------------------------------------------|
|------------------------1--2---------------------------|
|--------------------4----------------------------------|
|Guitar 2:                                              |
|------------7---7---x---7---7--------------------------|
|------------6---6---x---6---6--------------------------|
|------------7---7---x---7---7--------------------------|
|-------------------------------------------------------|
|-------------------------------------------------------|
|-------------------------------------------------------|
  But always in my heart
Chorus 1:
 Guitar 1:
   Cm7      Fm7     Bb    Eb
|--8--8-x--8---8---6---6--x--6-----------------------|
|--8--8-x--8---9---6---6--x--6-----------------------|
|--8--8-x--8---8---7---7--x--7-----------------------|
|-10-10-x-10--10---8---8--x--8-----------------------|
|----------------------------------------------------|
|----------------------------------------------------|
| Guitar 2:                                          |
|----------------------------------------------------|
|----------------------------------------------------|
|------------------------------8-8-8-8-8-8-----------|
|------------------------------x-x-x-x-x-x-----------|
|------------------------------6-6-6-6-6-6-----------|
|----------------------------------------------------|
       This love has taken its toll on me
 Guitar 1:
    Cm7      Fm7     Bb         Eb
|---8---8--x---8---8---6--6--x--6--------------------|
|---8---8--x---8---9---6--6--x--6--------------------|
|---8---8--x---8---8---7--7--x--7--------------------|
|--10--10--x--10--10---8--8--x--8--------------------|
|----------------------------------------------------|
|----------------------------------------------------|
| Guitar 2:                                          |
|----------------------------------------------------|
|----------------------------------------------------|
|--------------------------------8-8-8-9-9-9---------|
|--------------------------------x-x-x-x-x-x---------|
|--------------------------------6-6-6-7-7-7---------|
|----------------------------------------------------|
 She said Goodbye too many times before


 Guitar 1:
   Cm7   Fm7     Bb      Eb
|--8--8-x---8---8---6---6--x--6----------------------|
|--8--8-x---8---9---6---6--x--6----------------------|
|--8--8-x---8---8---7---7--x--7----------------------|
|-10-10-x--10--10---8---8--x--8----------------------|
|----------------------------------------------------|
|----------------------------------------------------|
| Guitar 2:                                          |
|----------------------------------------------------|
|----------------------------------------------------|
|---------------------------------8-8-8-8-8-8--------|
|---------------------------------x-x-x-x-x-x--------|
|---------------------------------6-6-6-6-6-6--------|
|----------------------------------------------------|
 And her heart is breaking in front of me
 Guitar 1:
  Cm7         Fm7   Bb          Ab       G
|---8---8--x---8----8---6---6--x--6------------------|
|---8---8--x---8----9---6---6--x--6------------------|
|---8---8--x---8----8---7---7--x--7------------------|
|--10--10--x--10---10---8---8--x--8------------------|
|----------------------------------------------------|
|----------------------------------------------------|
| Guitar 2:                                          |
|----------------------------------------------------|
|----------------------------------------------------|
|---------------------------------8-8-8-9-9-9--------|
|---------------------------------x-x-x-x-x-x--------|
|---------------------------------6-6-6-7-7-7--------|
|----------------------------------------------------|
I have no choice cause I won't say goodbye anymore
 Guitar 1:
|---------------------------------------------------------|
|---------------------------------------------------------|
|---------------------------------------------------------|
|------------------5--4--3----3---------------------------|
|--2----2--5--3------------------6--5-------1--2----------|
|----------------------------------------4----------------|
| Guitar 2:                                               |
|--7--7--x--7--7---8--8--x--8---8--8--x--8---7--7--x-77--|
|--6--6--x--6--6---8--8--x--8---9--9--x--9---6--6--x-66--|
|--7--7--x--7--7---8--8--x--8---8--8--x--8---7--7--x-77--|
|---------------------------------------------------------|
|---------------------------------------------------------|
|---------------------------------------------------------|
  Oh..oh..oh............oh..oh..oh......oh...oh....oh
Verse 2:
 Guitar 1:
  G/B                     Cm             Fm7
|---------------------------------------------------------|
|---------------------------------------------------------|
|---------------------------------------------------------|
|------------------5--4--3----3---------------------------|
|-------------3------------------6--5-------1--2----------|
|----------------------------------------4----------------|
| Guitar 2:                          pm.pm.pm             |
|---------------8-8-x-8---------8-8-x-8----------7-7-x-77|
|---------------8-8-x-8---------9-9-x-9----------6-6-x-66|
|-----8h10p8----8-8-x-8---------8-8-x-8--8h10p8--7-7-x-77|
|--10--------10--------10-10-10--------10------10---------|
|---------------------------------------------------------|
|---------------------------------------------------------|
 I tried my best to feed her appetite keep her coming every night


[ Tab from: http://www.guitaretab.com/m/maroon-5/122225.html ]
 Guitar 1:
                  G/B                               Cm
|---------------------------------------------------------|
|---------------------------------------------------------|
|---------------------------------------------------------|
|------------------5--4--3----3---------------------------|
|--2----2--5--3------------------6--5-------1--2----------|
|----------------------------------------4----------------|
| Guitar 2:                          pm.pm.pm             |
|---------------8-8-x-8---------8-8-x-8----------7-7-x-77|
|---------------8-8-x-8---------9-9-x-9----------6-6-x-66|
|-----8h10p8----8-8-x-8---------8-8-x-8--8h10p8--7-7-x-77|
|--10--------10--------10-10-10--------10------10---------|
|---------------------------------------------------------|
|---------------------------------------------------------|
So hard to keep her satisfied kept playing love like it was just a game
Guitar 1:
           Fm7                                    G/B
|---------------------------------------------------------|
|---------------------------------------------------------|
|---------------------------------------------------------|
|------------------5--4--3----3---------------------------|
|--2----2--5--3------------------6--5-------1--2----------|
|----------------------------------------4----------/12\--|
| Guitar 2:                          pm.pm.pm                                          |
|---------------8-8-x-8---------8-8-x-8----------7-7-x-77|
|---------------8-8-x-8---------9-9-x-9----------6-6-x-66|
|-----8h10p8----8-8-x-8---------8-8-x-8--8h10p8--7-7-x-77|
|--10--------10--------10-10-10--------10------10---------|
|---------------------------------------------------------|
|---------------------------------------------------------|
Pretending to feel the same then turn around and leave again
Chorus:
 Guitar 1:
    Cm7    Fm7    Bb      Eb
|---8---8--x---8----8---6---6--x--6------------------|
|---8---8--x---8----9---6---6--x--6------------------|
|---8---8--x---8----8---7---7--x--7------------------|
|--10--10--x--10---10---8---8--x--8------------------|
|----------------------------------------------------|
|----------------------------------------------------|
| Guitar 2:                                          |
|----------------------------------------------------|
|----------------------------------------------------|
|---------------------------------8-8-8-8-8-8--------|
|---------------------------------x-x-x-x-x-x--------|
|---------------------------------6-6-6-6-6-6--------|
|----------------------------------------------------|
       This love has taken its toll on me
 Guitar 1:
  Cm7     Fm7      Bb         Eb
|---8---8--x---8----8---6---6--x--6------------------|
|---8---8--x---8----9---6---6--x--6------------------|
|---8---8--x---8----8---7---7--x--7------------------|
|--10--10--x--10---10---8---8--x--8------------------|
|----------------------------------------------------|
|----------------------------------------------------|
| Guitar 2:                                          |
|----------------------------------------------------|
|----------------------------------------------------|
|---------------------------------8-8-8-9-9-9--------|
|---------------------------------x-x-x-x-x-x--------|
|---------------------------------6-6-6-7-7-7--------|
|----------------------------------------------------|
 She said Goodbye too many times before


  Guitar 1:
   Cm7      Fm7     Bb     Eb
|---8---8--x---8----8---6---6--x--6------------------|
|---8---8--x---8----9---6---6--x--6------------------|
|---8---8--x---8----8---7---7--x--7------------------|
|--10--10--x--10---10---8---8--x--8------------------|
|----------------------------------------------------|
|----------------------------------------------------|
| Guitar 2:                                          |
|----------------------------------------------------|
|----------------------------------------------------|
|---------------------------------8-8-8-8-8-8--------|
|---------------------------------x-x-x-x-x-x--------|
|---------------------------------6-6-6-6-6-6--------|
|----------------------------------------------------|
 And her heart is breaking in front of me
 Guitar 1:
  Cm7     Fm7      Bb      Ab           G
|---8---8--x---8----8---6---6--x--6------------------|
|---8---8--x---8----9---6---6--x--6------------------|
|---8---8--x---8----8---7---7--x--7------------------|
|--10--10--x--10---10---8---8--x--8------------------|
|----------------------------------------------------|
|----------------------------------------------------|
| Guitar 2:                                          |
|----------------------------------------------------|
|----------------------------------------------------|
|---------------------------------8-8-8-9-9-9--------|
|---------------------------------x-x-x-x-x-x--------|
|---------------------------------6-6-6-7-7-7--------|
|----------------------------------------------------|
I have no choice cause I won't say goodbye anymore
 Guitar 1:
|----------------------------------------------------|
|----------------------------------------------------|
|----------------------------------------------------|
|------------------5--4--3----3----------------------|
|--2----2--5--3------------------6--5----------------|
|----------------------------------------------------|
| Guitar 2:  	        |
|--7--7--x--7--7--8--8-x--8--8--8--x--8-7--7--x-77--|
|--6--6--x--6--6--8--8-x--8--9--9--x--9-6--6--x-66--|
|--7--7--x--7--7--8--8-x--8--8--8--x--8-7--7--x-77--|
|----------------------------------------------------|
|----------------------------------------------------|
|----------------------------------------------------|
  Oh..oh..oh............oh..oh..oh......oh...oh....oh
Bridge:
   Fm7                  Ebmaj7
|---8--------------------6---------------------------|
|---9--------------------8---------------------------|
|---8--------------------7---------------------------|
|--10--------------------8---------------------------|
|---8--------------------6---------------------------|
|----------------------------------------------------|
  I'll fix these broken things repair your broken wings
     G7/B                              Cm
|------------------------8---------------------------|
|---12-------------------8---------------------------|
|---10-------------------8---------------------------|
|---12-------------------10--------------------------|
|---10-------------------10--------------------------|
|----------------------------------------------------|
 And make sure everything's alright



     Fm/C                           Ebmaj7
|---8-------------------6----------------------------|
|---9-------------------8----------------------------|
|---8-------------------7----------------------------|
|--10-------------------8----------------------------|
|---8-------------------6----------------------------|
|----------------------------------------------------|
My pressure on your hips sinking my fingertips
             G7/B
|---------------------------------------------------|
|-------12------------------------------------------|
|-------10------------------------------------------|
|-------12------------------------------------------|
|-------10------------------------------------------|
|---------------------------------------------------|
Into every inch of you cause I know that's what you want me to do
Chorus:
Guitar 1:
  Cm7    Fm7    Bb       Eb
|---8---8--x---8----8---6---6--x--6------------------|
|---8---8--x---8----9---6---6--x--6------------------|
|---8---8--x---8----8---7---7--x--7------------------|
|--10--10--x--10---10---8---8--x--8------------------|
|----------------------------------------------------|
|----------------------------------------------------|
| Guitar 2:                                          |
|----------------------------------------------------|
|----------------------------------------------------|
|---------------------------------8-8-8-8-8-8--------|
|---------------------------------x-x-x-x-x-x--------|
|---------------------------------6-6-6-6-6-6--------|
|----------------------------------------------------|
       This love has taken its toll on me
 Guitar 1:
   Cm7    Fm7       Bb         Eb
|---8---8--x---8----8---6---6--x--6------------------|
|---8---8--x---8----9---6---6--x--6------------------|
|---8---8--x---8----8---7---7--x--7------------------|
|--10--10--x--10---10---8---8--x--8------------------|
|----------------------------------------------------|
|----------------------------------------------------|
| Guitar 2:                                          |
|----------------------------------------------------|
|----------------------------------------------------|
|---------------------------------8-8-8-9-9-9--------|
|---------------------------------x-x-x-x-x-x--------|
|---------------------------------6-6-6-7-7-7--------|
|----------------------------------------------------|
 She said Goodbye too many times before
Guitar 1:
   Cm7        Fm7   Bb     Eb
|---8---8--x---8----8---6---6--x--6------------------|
|---8---8--x---8----9---6---6--x--6------------------|
|---8---8--x---8----8---7---7--x--7------------------|
|--10--10--x--10---10---8---8--x--8------------------|
|----------------------------------------------------|
|----------------------------------------------------|
| Guitar 2:                                          |
|----------------------------------------------------|
|----------------------------------------------------|
|---------------------------------8-8-8-8-8-8--------|
|---------------------------------x-x-x-x-x-x--------|
|---------------------------------6-6-6-6-6-6--------|
|----------------------------------------------------|
 And her heart is breaking in front of me


Guitar 1:
   Cm7        Fm7  Bb         Ab      G
|---8---8--x---8----8---6---6--x--6------------------|
|---8---8--x---8----9---6---6--x--6------------------|
|---8---8--x---8----8---7---7--x--7------------------|
|--10--10--x--10---10---8---8--x--8------------------|
|----------------------------------------------------|
|----------------------------------------------------|
| Guitar 2:                                          |
|----------------------------------------------------|
|----------------------------------------------------|
|---------------------------------8-8-8-9-9-9--------|
|---------------------------------x-x-x-x-x-x--------|
|---------------------------------6-6-6-7-7-7--------|
|----------------------------------------------------|
I have no choice cause I won't say goodbye anymore

Outro:
 Guitar 1:
|---8---8--x---8----8---6---6--x--6------------------|
|---8---8--x---8----9---6---6--x--6------------------|
|---8---8--x---8----8---7---7--x--7------------------|
|--10--10--x--10---10---8---8--x--8------------------|
|----------------------------------------------------|
|----------------------------------------------------|
| Guitar 2:                                          |
|----------------------------------------------------|
|----------------------------------------------------|
|---------------------------------8-8-8-8-8-8--------|
|---------------------------------x-x-x-x-x-x--------|
|---------------------------------6-6-6-6-6-6--------|
|----------------------------------------------------|
      This love has taken its toll on me
 Guitar 1:
|---8---8--x---8----8---6---6--x--6------------------|
|---8---8--x---8----9---6---6--x--6------------------|
|---8---8--x---8----8---7---7--x--7------------------|
|--10--10--x--10---10---8---8--x--8------------------|
|----------------------------------------------------|
|----------------------------------------------------|
| Guitar 2:                                          |
|----------------------------------------------------|
|----------------------------------------------------|
|---------------------------------8-8-8-9-9-9--------|
|---------------------------------x-x-x-x-x-x--------|
|---------------------------------6-6-6-7-7-7--------|
|----------------------------------------------------|
She said Goodbye too many times before
 Guitar 1:
|---8---8--x---8----8---6---6--x--6------------------|
|---8---8--x---8----9---6---6--x--6------------------|
|---8---8--x---8----8---7---7--x--7------------------|
|--10--10--x--10---10---8---8--x--8------------------|
|----------------------------------------------------|
|----------------------------------------------------|
| Guitar 2:                                          |
|----------------------------------------------------|
|----------------------------------------------------|
|---------------------------------8-8-8-8-8-8--------|
|---------------------------------x-x-x-x-x-x--------|
|---------------------------------6-6-6-6-6-6--------|
|----------------------------------------------------|
 And her heart is breaking in front of me




 Guitar 1:
|---8---8--x---8----8---6---6--x--6------------------|
|---8---8--x---8----9---6---6--x--6------------------|
|---8---8--x---8----8---7---7--x--7------------------|
|--10--10--x--10---10---8---8--x--8------------------|
|----------------------------------------------------|
|----------------------------------------------------|
| Guitar 2:                                          |
|----------------------------------------------------|
|----------------------------------------------------|
|---------------------------------8-8-8-9-9-9--------|
|---------------------------------x-x-x-x-x-x--------|
|---------------------------------6-6-6-7-7-7--------|
|----------------------------------------------------|
I have no choice cause I won't say goodbye anymore

SWITCHBLADE RULEZ..........
Related for This Love tab