Guitaretab - guitar tabs
Song name
# A B C D E F G H I J K L M N O P Q R S T U V W X Y Z

Maroon 5 - Wake Up Call tab

Intro:

e|--------------------------------------------------------------------------|
B|--------------------------------------------------------------------------|
G|--------------------------------------------------------------------------|
D|---------------------9b10------------------9------------------------------|
A|-----7-10-7-10-7-10--------7-10-7-10-7-10---------------------------------|
E|--------------------------------------------------------------------------|


Verse:   

   Em    Am    Bm
e|--7----5-----7---------|
B|--8----5-----7---------|
G|--9----5-----7---------|
D|--9----7-----9---------|
A|--7----7---------------|
E|-----------------------|


Em
I didnít hear what you were saying 

Em
I live on raw emotion baby

Am                              Bm
I answer questions, never maybe

Em
And Iím not kind if you betray me

Em
So who the hell are you to save me?

Am                            Bm
I never wouldíve made it baby


Pre chorus:

    Em             
e|----------------------------------------------------|
B|----------------------------------------------------|
G|-----------9------------9---------------------------|
D|--------9-------------9----------9------------------|
A|--7-10-------7---7-10-----7--10---------------------|
E|----------------------------------------------------|


    B
e|-------------------------------------------------|
B|-------------------------------------------------|
G|-------------------------------------------------|
D|---------9---------------9-----------------------|
A|----6--9-----------6--9--------6-9---------------|
E|--7----------7---7----------7--------------------|

   Em
If you needed love  Well then ask for love

Could have given love Now Iím taking love

     B
And itís not my fault Coz you both deserve

Whatís coming now So donít say a word


Chorus:

     Em   B
e|---0----7-----------------------|
B|---0----7-----------------------|
G|---0----8-----------------------|
D|---2----9-----------------------|
A|---2----9-----------------------|
E|---0----7-----------------------|


[ Tab from: http://www.guitaretab.com/m/maroon-5/155314.html ]
     Em
Wake up call Caught you in the morning with another man in my bed

            B           
You donít care about me anymore. Care about me?  I donít think so

Em  
Six foot tall came without a warning so I had to shoot him dead

         B
He wonít come around here anymore, come around here?


I donít feel so 


Verse 2:

   Em   Bm       Am       
e|---------------5---------------------------------------|
B|-8-------------5---------------------------------------|
G|-9-------------5---------------------------------------|
D|-9-----4-------7---------------------------------------|
A|-7-----5-------7---------------------------------------|
E|-------7-----------------------------------------------|

Em                              Bm  Em                                                              
Would have bled to make you happy You didn't need to treat me that way

Bm  Am
  And now you beat me at my own game

Bm  Em
  And now I'm finally sleeping soundly
Em
And your lover's screaming loudly

Bm Am
 I hear a sound and hit the ground


Break down:
                         
e|-----------------------7----------------------------------------------------|
B|-----------------------7----------------------------------------------------|
G|--9-8-7-6---9-8-7-6----8----------------------------------------------------|
D|-----------------------9----------------------------------------------------|
A|--7-6-5-4---7-6-5-4----9----------------------------------------------------|
E|-----------------------7(x3)------------------------------------------------|


          B
I'm so sorry darling

B
Did I do the wrong thing? Oh, what was I thinking?
B
Is his heart still beating?


Ending:

e|--------------------------------------7-------------------------------------|
B|--------------------------------------7-------------------------------------|
G|---9--11--12---14---9--11--12--14-----8-------------------------------------|
D|--------------------------------------9-------------------------------------|
A|---7--9---10---12---7--9---10--12-----9-------------------------------------|
E|--------------------------------------7(x10)--------------------------------|


Related for Wake Up Call tab