Song name
# A B C D E F G H I J K L M N O P Q R S T U V W X Y Z

Maroon 5 - Sunday Morning tab

This is just how to play that breakdown in two positions.


E---------8-8----8---10h11h12----------------------------------------------|
B--8-8-10-----10--------------12p11p10--12h13---12h13----12h13-------------|
G---------------------------------------------12------11-------10-10-12---o|
D--------------------------------------------------------------------------|
A-------------------------------------------------------------------------o|
E--------------------------------------------------------------------------|


or

E--------------------------------------------------------------------------|
B--------------------------------------------------------------------------|
G-------5-5---5--7p8p9----------------------------------------------------o|
D-5-5-7-----7-----------9p8p7-9h10-----9h10-----9h10-----------------------|
A----------------------------------10--------9--------8-8-10--------------o|
E--------------------------------------------------------------------------|
Tap to rate this tab
# A B C D E F G H I J K L M N O P Q R S T U V W X Y Z