Guitaretab - guitar tabs
Song name
# A B C D E F G H I J K L M N O P Q R S T U V W X Y Z

Maroon 5 - Control Myself tab

-------------------------------------------------------------------------------
			     Control Myself - Maroon 5
-------------------------------------------------------------------------------
Tabbed by: DeathMetalDave
Email: Bipolarised@hotmail.co.uk

Tuning: Standard

e|--------------------------------------------------------------------------|
B|--------------------------------------------------------------------------|
G|----/12--11-----------12p11----9h11-----9p8p6-------9---11--9--12/13------|
D|-------------10v----------------------------------------------------------|
A|--------------------------------------------------------------------------|
E|--------------------------------------------------------------------------|
[ Tab from: http://www.guitaretab.com/m/maroon-5/178631.html ]
e|--------------------------------------------------------------------------|
B|--15-----15/12------------------------------------------------------------|
G|--15-----15/12-----9---11----11p10-----8h9-------------12fb---------------|
D|--------------------------------------------------------------10v---------|
A|--------------------------------------------------------------------------|
E|--------------------------------------------------------------------------|

e|---------------------------------------------------------------------------|
B|---------------------------------------------------------------------------|
G|------12p11-----9h11----9v-------------------------------------------------|
D|---------------------------------------------------------------------------|
A|---------------------------------------------------------------------------|
E|---------------------------------------------------------------------------|

Working through it - will be complete shortly hopefully.
Related for Control Myself tab
Advertisement will be closed in 10 seconds