Song name
# A B C D E F G H I J K L M N O P Q R S T U V W X Y Z

Maroon 5 - Sunday Morning tab

for ultimate-guitar.com
by: theguitarhero12

intro, verse and chorus:
    Dm7,      G7,      C
e----------------|
b--6-----3----3--|
g--5-----4----3--|
d--7-----3----3--|
a--5-----5----5--|
e--------3-------|


bridge:

e---------------------------------------------------|
b---------------------------------------------------|
g--5-8-9--------------------------------------------|
d--------9/8/7-9h10----9h10---9h10------------7-10--|
a-------------------10------9------8-8-10--10-------|
e---------------------------------------------------|

e------------------------------------------------|
b------------------------------------------5--5--|
g--5-8-9-----------------------------------5--6--|
d--------9/8/7-9h10----9h10---9h10---------5--5--|
a-------------------10------9------8-8-10--3-----|
e---------------------------------------------5--|
Tap to rate this tab
# A B C D E F G H I J K L M N O P Q R S T U V W X Y Z