Guitaretab - guitar tabs
Song name
# A B C D E F G H I J K L M N O P Q R S T U V W X Y Z

Maroon 5 - Harder To Breathe tab

Yo, I Thought i should send this part of buety music in,

Enjoy.


e-----------------------------------|---------------------------------------|
B-----------------------------------|---------------------------------------|
G-----------------------------------|---------------------------------------|
D-------------------------------2-4-|---------2-4---------------------------|
A----2-4--2-4---2-4--2-4---2-4------|4----2-4-------------------------------|
E-------------4----------4----------|----4----------------------------------|

e-----------------------------------|---------------------------------------|
B-----------------------------------|---------------------------------------|
G-----------------------------------|---------------------------------------|
D-------------------------------2-4-|---------------------------------------|
A----2-4--2-4---2-4--2-4---2-4------|4--------------------------------------|
E-------------4----------4----------|---------------------------------------|
[ Tab from: http://www.guitaretab.com/m/maroon-5/25726.html ]
e-----------------------------------|---------------------------------------|
B-----------------------------------|---------------------------------------|
G-----------------------------------|---------------------------------------|
D-----------------------------------|---------------------------------------|
A----4-----------2------------------|---------------------------------------|
E--------4--4--4---2--2-0-2p0-2-----|--2--0-2p0-2p0-------------------------|
                                                 Tack Fades
e-----------------------------------|---------------------------------------|
B-----------------------------------|---------------------------------------|
G-----------------------------------|---------------------------------------|
D-----------------------------------|---------------------------------------|
A----4-----------2------------------|--4(Gliss)-----------------------------|
E--------4--4--4---2--2-0-3-2p0-----|---------------------------------------|

This was my First tab so plz rate, if any prob e-mail me at SKYLINE_BOOM@hotmail.co.uk
Happy Playing
Related for Harder To Breathe tab
×
Best way to learn
"Harder To Breathe"