Song name
# A B C D E F G H I J K L M N O P Q R S T U V W X Y Z

Maroon 5 - Sunday Morning tab

-------------------------------------------------------------------------------
			     Sunday Morning - Maroon 5
-------------------------------------------------------------------------------
Tabbed by: tasha123
Email: bffl0708@yahoo.com

Tuning:

e|---------------------------------------------------------------------------|
B|---------------------------------------------------------------------------|
G|---------------------------------------------------------------------------|
D|-----0h1-2-----------------------------------------------------------------|
A|---3--------3p2-0--2h3----2h3----2h3---------------------------------------|
E|-----------------------3-------2-----1-----1-3-----------------------------|

e|---------------------------------------------------------------------------|
B|---------------------------------------------------------------------------|
G|-------7h8-9---------------------------------------------------------------|
D|----10---------10p9-7--9h10------9h10----9h10-------------10-11------------|
A|-----------------------------10-------9-------8---8--10--------------------|
E|---------------------------------------------------------------------------|

i might put up the next solo l8r...might not.
email for questions! :)

************************************

| /   slide up
| \   slide down
| h   hammer-on
| p   pull-off
| ~   vibrato
| +   harmonic
| x   Mute note
| b   Bend
| pb  Pre-bend
| br  Bend release
| pbr Pre-bend release
| brb Bend release bend

************************************
Tap to rate this tab
# A B C D E F G H I J K L M N O P Q R S T U V W X Y Z