Song name
# A B C D E F G H I J K L M N O P Q R S T U V W X Y Z

Maroon 5 - I Wont Go Home Without You tab

This is my first tab so it might not be so good,
Anyway here it is
I will do the rest of the song on another tab.
Cheers.Leon
Verse
Gt.1


E  --------------------------------------------------------------------------|
B  --------------------------------------------------------------------------|
G  --------------------------------------------------------------------------|
D  8-8-8-8-8-8-8-8-8-8-8-8-8-8-8-8-10-10-10-10-10-10-10-10-10-10-10-10-10-10-|
A  6-6-6-6-6-6-6-6-6-6-6-6-6-6-6-6--8--8--8--8--8--8--8--8--8--8--8--8--8--8-|
E  --------------------------------------------------------------------------|

E  -------------------------------------------------------------------------|
B  -------------------------------------------------------------------------|
G  -------------------------------------------------------------------------|
D  10-10---------------------------------8-8-8-8-8-8-8-8-8-8-8-8-8-8-8-8----|
A  -8--8-8-8-8-8-8-8-8-8-8-8-8-8-8-8-8-8-6-6-6-6-6-6-6-6-5-5-5-5-5-5-5-5----|
E  ------6-6-6-6-6-6-6-6-6-6-6-6-6-6-6-6------------------------------------|

E  -------------------------------------------------------------------------|
B  -------------------------------------------------------------------------|
G  -------------------------------------------------------------------------|
D  ------------------------------------------------10-10-10-10-10-10-10-10--|
A  10-10-10-10-10-10-10-10-10-10-10-10-10-10-10-10--8--8--8--8--8--8--8--8--|
E  -8--8--8--8--8--8--8--8--8--8--8--8--8--8--8--8--------------------------|

E  --------------------------------------------------------------------------|
B  --------------------------------------------------------------------------|
G  --------------------------------------------------------------------------|
D  10-10-10-10-10-10-10-10---------------------------------8-8-8-8-8-8-8-8-8-|
A  -8--8--8--8--8--8--8--8-6-6-6-6-6-6-6-6-8-8-8-8-8-8-8-8-6-6-6-6-6-6-6-6-6-|
E  ------------------------4-4-4-4-4-4-4-4-6-6-6-6-6-6-6-6-------------------|

E  -------------|
B  -------------|
G  -------------|
D  8-8-8-8-8-8-8|
A  6-6-6-6-6-6-6|
E  -------------|


Verse
Gt.2


E  ---------------------------------------------------------------|
B  ---------------------------------------------------------------|
G  8-8-10-8-10-8-8-8-8-8-10-8-10-8-8-8--8--8-10--8-10--8--8--8--8-|
D  8-8--8-8--8-8-8-8-8-8--8-8--8-8-8-8-10-10-10-10-10-10-10-10-10-|
A  6-6--6-6--6-6-6-6-6-6--6-6--6-6-6-6--8--8--8--8--8--8--8--8--8-|
E  ---------------------------------------------------------------|
Tap to rate this tab
 
# A B C D E F G H I J K L M N O P Q R S T U V W X Y Z