Song name
# A B C D E F G H I J K L M N O P Q R S T U V W X Y Z

Maroon 5 - Nothing Lasts Forever tab

Tabbed By: Josh Daley

Tuning: E A D G B E (Standard)



Intro/Verse/Pre chorus:

   Guitar 1:

   --2----2----2--0--2--0--|
   --3----2----0--0--0--0--|
   --2----2----0--0--0--0--|
   --0----0----0--2--0--2--|
   ------------x--x--x--x--|
   ------------3--3--3--3--|


   Guitar 2:

   --------------------------------------|
   -----3---3---3---------2---2---2------|
   ---2---2---2---2-2---2---2---2---2-2--|
   --0-0---0---0---0---0-0---0---0---0---|
   --------------------------------------|
   --------------------------------------|

   -----2----0---0---------2----2^0---0------|
   ---0---0----0---0-0---0---0------0---0-0--|
   ----0---0----0---0-----0---0------0---0---|
   ------------------------------------------|
   ------------------------------------------|
   --3------------------3--------------------|



Chorus:

Guitar 1 & 2 (Guitar 2 only single strums):

--0--2--0----0--2--0----2--------2----3----|
--0--3--2----0--3--2----0--------3----3----|
--0--2--2----0--2--2----0--------3----3----|
--0--0--0----0--0--0----0--------4----4----|
------------------------x-------------5----|
------------------------3-------------3----|



Interlude:

Guitar 2 (Single strum):

--2--------|
--3--------|
--2--------|
--0--------|
-----------|
-----------|



Bridge:

   Guitar 1:

   --0----3----2----2----|
   --3----3----3----3----|
   --0----3----2----2----| x2
   --2----4----0----4----|
   --2----4---------2----|
   --0----3--------------|

   -0----0----|
   -2----2----|
   -2----0----|
   -2----2----|
   -0----0----|
   -----------|


   Guitar 2:

   -----3---3---3---------6---6---6-----------5---5---5---------2---2-----2------|
   ---5---5---5---5-5---8---8---8---8-8-----7---7---7---7-7---3---3---2^3---2-3--|
   --4-4---4---4---4---7-7---7---7---7-----7-7---7---7---7---4-4---4-----4-------| x2
   ------------------------------------------------------------------------------|
   ------------------------------------------------------------------------------|
   ------------------------------------------------------------------------------|

   -----0---0---0---------0---0----0---0--|
   ---2---2---2---2-2---2---2---2----2-2--|
   --2-2---2---2---2---0-0---0---0----00--|
   ------------------------------------2--|
   ------------------------------------0--|
   ---------------------------------------|


Final Chorus:

Guitar 1 & 2 (Guitar 2 only single strums):

--0--2--0----0--2--0----2--------2----3----|
--0--3--2----0--3--2----0--------3----3----|
--0--2--2----0--2--2----0--------3----3----|
--0--0--0----0--0--0----0--------4----4----|
------------------------x-------------5----|
------------------------3-------------3----|

--0--2--0----0--2--0----2--------2----3----2----|
--0--3--2----0--3--2----0--------3----3----3----|
--0--2--2----0--2--2----0--------3----3----2----|
--0--0--0----0--0--0----0--------4----4----0----|
------------------------x-------------5---------|
------------------------3-------------3---------|
Tap to rate this tab
 
# A B C D E F G H I J K L M N O P Q R S T U V W X Y Z