Song name
# A B C D E F G H I J K L M N O P Q R S T U V W X Y Z

Maroon 5 - Daylight tab

  Maroon 5 - Daylight 

                                       
    By : Nir

E|-2-----2-----2-----2-----0-----0-----0-----0------|
B|-3--3--3--3--3--3--3--3--3--3--3--3--3--3--3--3---|
G|-2-----2-----2-----2-----2-----2-----2-----2------|
D|--------------------------------------------------|
A|--------------------------------------------------|
E|--------------------------------------------------|

E|-2-----2-----2-----2-----0-----0-----0-----0------|
B|-3--3--3--3--3--3--3--3--3--3--3--3--3--3--3--3---|
G|-2-----2-----2-----2-----2-----2-----2-----2------|
D|--------------------------------------------------|
A|--------------------------------------------------|
E|--------------------------------------------------|
 

E|-2-----2-----2-----2-----0-----0-----0-----0------|
B|-3--3--3--3--3--3--3--3--3--3--3--3--3--3--3--3---|
G|-2-----2-----2-----2-----2-----2-----2-----2------|
D|--------------------------------------------------|
A|--------------------------------------------------|
E|--------------------------------------------------|


E|-2-----2-----2-----2-----0-----0-----0-----0------|
B|-3--3--3--3--3--3--3--3--3--3--3--3--3--3--3--3---|
G|-2-----2-----2-----2-----2-----2-----2-----2------|
D|--------------------------------------------------|
A|--------------------------------------------------|
E|--------------------------------------------------|
  
E|-2-----2-----2-----2-----3-----3-----3-----3------|
B|-3--3--3--3--3--3--3--3--3--3--3--3--3--3--3--3---|
G|-2-----2-----2-----2-----4-----4-----4-----4------|
D|--------------------------------------------------|
A|--------------------------------------------------|
E|--------------------------------------------------|


E|-2-----2-----2-----2-----3-----3-----3-----3------|
B|-3--3--3--3--3--3--3--3--3--3--3--3--3--3--3--3---|
G|-2-----2-----2-----2-----4-----4-----4-----4------|
D|--------------------------------------------------|
A|--------------------------------------------------|
E|--------------------------------------------------|


E|-2-----2-----2-----2-----3-----3-----3-----3------|
B|-3--3--3--3--3--3--3--3--3--3--3--3--3--3--3--3---|
G|-2-----2-----2-----2-----4-----4-----4-----4------|
D|--------------------------------------------------|
A|--------------------------------------------------|
E|--------------------------------------------------|


E|-2-----2-----2-----2-----3-----3-----3-----3------|
B|-3--3--3--3--3--3--3--3--3--3--3--3--3--3--3--3---|
G|-2-----2-----2-----2-----4-----4-----4-----4------|
D|--------------------------------------------------|
A|--------------------------------------------------|
E|--------------------------------------------------|



E|-3-----3-----3-----3-----3-----3-----3-----3------|
B|-3--3--3--3--3--3--3--3--3--3--3--3--3--3--3--3---|
G|-4-----4-----4-----4-----4-----4-----4-----4------|
D|--------------------------------------------------|
A|--------------------------------------------------|
E|--------------------------------------------------|




CHORUS

               D                  Bm
And when the daylight comes i'll have to go

        G                        D
But tonight i'm gonna hold you so close

               D                Bm
Cause in the daylight we'll be on our own

       G                         D
But tonight I need to hold you so close

   D    Bm         G               D
Oh-woa, oh-woa, oh-woa,  oh-oh    oh-oh-oh

   D    Bm         G               D
Oh-woa, oh-woa, oh-woa,  oh-oh    oh-oh-oh


E|-2-----2-----2-----2-----0-----0-----0-----0------|
B|-3--3--3--3--3--3--3--3--3--3--3--3--3--3--3--3---|
G|-2-----2-----2-----2-----2-----2-----2-----2------|
D|--------------------------------------------------|
A|--------------------------------------------------|
E|--------------------------------------------------|

E|-2-----2-----2-----2-----0-----0-----0-----0------|
B|-3--3--3--3--3--3--3--3--3--3--3--3--3--3--3--3---|
G|-2-----2-----2-----2-----2-----2-----2-----2------|
D|--------------------------------------------------|
A|--------------------------------------------------|
E|--------------------------------------------------|
 

E|-2-----2-----2-----2-----0-----0-----0-----0------|
B|-3--3--3--3--3--3--3--3--3--3--3--3--3--3--3--3---|
G|-2-----2-----2-----2-----2-----2-----2-----2------|
D|--------------------------------------------------|
A|--------------------------------------------------|
E|--------------------------------------------------|


E|-2-----2-----2-----2-----0-----0-----0-----0------|
B|-3--3--3--3--3--3--3--3--3--3--3--3--3--3--3--3---|
G|-2-----2-----2-----2-----2-----2-----2-----2------|
D|--------------------------------------------------|
A|--------------------------------------------------|
E|--------------------------------------------------|
  
E|-2-----2-----2-----2-----3-----3-----3-----3------|
B|-3--3--3--3--3--3--3--3--3--3--3--3--3--3--3--3---|
G|-2-----2-----2-----2-----4-----4-----4-----4------|
D|--------------------------------------------------|
A|--------------------------------------------------|
E|--------------------------------------------------|


E|-2-----2-----2-----2-----3-----3-----3-----3------|
B|-3--3--3--3--3--3--3--3--3--3--3--3--3--3--3--3---|
G|-2-----2-----2-----2-----4-----4-----4-----4------|
D|--------------------------------------------------|
A|--------------------------------------------------|
E|--------------------------------------------------|


E|-2-----2-----2-----2-----3-----3-----3-----3------|
B|-3--3--3--3--3--3--3--3--3--3--3--3--3--3--3--3---|
G|-2-----2-----2-----2-----4-----4-----4-----4------|
D|--------------------------------------------------|
A|--------------------------------------------------|
E|--------------------------------------------------|


E|-2-----2-----2-----2-----3-----3-----3-----3------|
B|-3--3--3--3--3--3--3--3--3--3--3--3--3--3--3--3---|
G|-2-----2-----2-----2-----4-----4-----4-----4------|
D|--------------------------------------------------|
A|--------------------------------------------------|
E|--------------------------------------------------|



E|-3-----3-----3-----3-----3-----3-----3-----3------|
B|-3--3--3--3--3--3--3--3--3--3--3--3--3--3--3--3---|
G|-4-----4-----4-----4-----4-----4-----4-----4------|
D|--------------------------------------------------|
A|--------------------------------------------------|
E|--------------------------------------------------|




CHORUS

               D                  Bm
And when the daylight comes i'll have to go

        G                        D
But tonight i'm gonna hold you so close

               D                Bm
Cause in the daylight we'll be on our own

       G                         D
But tonight I need to hold you so close

   D    Bm         G               D
Oh-woa, oh-woa, oh-woa,  oh-oh    oh-oh-oh

   D    Bm         G               D
Oh-woa, oh-woa, oh-woa,  oh-oh    oh-oh-oh

 


E|------0----0----0----0----2----2----2----2----------------------
B|---2----2----2----2----3----3----3----3-----3----3----3----3----      
G|-----------------------------------------------4----4----4----4-
D|----------------------------------------------------------------
A|----------------------------------------------------------------
E|----------------------------------------------------------------    

E|-------------------------|
B|----2-----2-----2-----2--|      
G|-4-----4-----4-----4-----|
D|-------------------------|
A|-------------------------|
E|-------------------------|   

E|------0----0----0----0----2----2----2----2----------------------
B|---2----2----2----2----3----3----3----3-----3----3----3----3----      
G|-----------------------------------------------4----4----4----4-
D|----------------------------------------------------------------
A|----------------------------------------------------------------
E|----------------------------------------------------------------   
       
E|---------------------------------------------|
B|----3-----3-----3-----3----3----3----3----3--|    
G|-4-----4-----4-----4-----4----4----4----4----|
D|---------------------------------------------|
A|---------------------------------------------|
E|---------------------------------------------|

CHORUS

               D                  Bm
And when the daylight comes i'll have to go

        G                        D
But tonight i'm gonna hold you so close

               D                Bm
Cause in the daylight we'll be on our own

       G                         D
But tonight I need to hold you so close

               D                  Bm
And when the daylight comes i'll have to go

        G                        D
But tonight i'm gonna hold you so close

               D                Bm
Cause in the daylight we'll be on our own

       G                         D
But tonight I need to hold you so close

   D        Bm      G               D
Oh-woa, oh-woa, oh-woa,  oh-oh    oh-oh-oh

   D        Bm      G               D
Oh-woa, oh-woa, oh-woa,  oh-oh    oh-oh-oh

   D        Bm      G               D
Oh-woa, oh-woa, oh-woa,  oh-oh    oh-oh-oh

   D        Bm      G               D
Oh-woa, oh-woa, oh-woa,  oh-oh    oh-oh-oh
Tap to rate this tab
# A B C D E F G H I J K L M N O P Q R S T U V W X Y Z