Song name
# A B C D E F G H I J K L M N O P Q R S T U V W X Y Z

Maroon 5 - Payphone tab

Tabbed By:Kier Rustin Ramos






Intro/Chorus
E|-----------------------------------------------------------------------------|
A|----------12s14-12-12p11-----------------------------------------------------|
D|8-9s11 -----------------------11-9-9-9p8---9-8-------------------------------|
G|-------------------------------------------------9-----9s11-9-11s13-11--9-9--|
B|-----------------------------------------------------------------------------|
E|-----------------------------------------------------------------------------| 2x
 I'm at a payphone trying to call home
 All of my change I spent on you
 Where have the times gone, baby it's all wrong
 Where are the plans we made for two?

Verse  1
E|------------------------------------------------------------|
A|------------------------------------------------------------|
D|11-11-11-8-6-6-11-11-11-8-8-11-11-11-8-6-6-11-11-11-13-8-8--|
G|------------------------------------------------------------|
B|------------------------------------------------------------|
E|------------------------------------------------------------|
Yeah, I, I know it's hard to remember,
 The people we used to be...
It's even harder to picture,
 That you're not here next to me.

E|----------------------------------------------------------|
A|----------------------------------------------------------|
D|11-11-11-8-6-6-11-11-11-8-8-11-11-11-8-6-6-9-8-6-9-8-6-8--|
G|----------------------------------------------------------|
B|----------------------------------------------------------|
E|----------------------------------------------------------|
You say it's too late to make it,
 But is it too late to try?
 And in our time that you wasted
 All of our bridges burned down.

Pre-chorus
E|----------------------------------------------------------------------------------------|
A|----------------------------------------------------------------------------------10-7--|
D|11-11-11-11-9-11-11-11-11-9-11-11-11-11-9 -12-11-9-9-7-7--------------------------------|
G|----------------------------------------------------------------------------------------|
B|----------------------------------------------------------------------------------------|
E|----------------------------------------------------------------------------------------|
I've wasted my nights,
 You turned out the lights
 Now I'm paralyzed,
 Still stuck in that time,

E|---------------------------------------------------------------------------------------|
A|---------------------------------------------------------------------------------------|
D|11-11-11-11-9-11-11-11-11-9-11-11-11-11-9 -12-11-9-------------------------------------|
G|---------------------------------------------------------------------------------------|
B|---------------------------------------------------------------------------------------|
E|---------------------------------------------------------------------------------------|
When we called it love,
 But even the sun sets in paradise.

Chorus
E|------------------------------------------------------------------------|
A|----------12s14-12-12p11------------------------------------------------|
D|8-9s11 -----------------------11-9-9-9p8---9-8--------------------------|
G|-------------------------------------------------9-----9s11-9-11s13-11--|
B|------------------------------------------------------------------------|
E|------------------------------------------------------------------------|
I'm at a payphone trying to call home
 All of my change I spent on you
E|---------------------------------------------------------------------------------------|
A|--------------15s17-15-15p14-----------------------------------------------------------|
D|11-12s14 -----------------------14--12-12p11------12-11--------------------------------|
G|----------------------------------------------------------12--------12s14-12-14s16-14--|
B|---------------------------------------------------------------------------------------|
E|---------------------------------------------------------------------------------------|
Where have the times gone, baby it's all wrong
 Where are the plans we made for two?

E|-----------------------------------------------------------|
B|--0--4--5--4--2--2--0--0--2--4--4--5--4--2--2--0--0--7--2--|
G|-----------------------------------------------------------|
D|-----------------------------------------------------------|
A|-----------------------------------------------------------|
E|-----------------------------------------------------------|
If "Happy Ever After" did exist,
 I would still be holding you like this
E|---------------------------------------------------------------|
B|16-16-17-16-14-14-12-12-14s16~--16-16-17-16-14-14-12-12-19-14--|
G|---------------------------------------------------------------|
D|---------------------------------------------------------------|
A|---------------------------------------------------------------|
E|---------------------------------------------------------------|
All those fairy tales are full of shit
 One more fucking love song, I'll be sick.

Verse 2
E|------------------------------------------------------------|
A|------------------------------------------------------------|
D|11-11-11-8-6-6-11-11-11-8-8-11-11-11-8-6-6-11-11-11-13-8-8--|
G|------------------------------------------------------------|
B|------------------------------------------------------------|
E|------------------------------------------------------------|
Yeah, I, I know it's hard to remember,
 The people we used to be...
It's even harder to picture,
 That you're not here next to me.

E|----------------------------------------------------------|
A|----------------------------------------------------------|
D|11-11-11-8-6-6-11-11-11-8-8-11-11-11-8-6-6-9-8-6-9-8-6-8--|
G|----------------------------------------------------------|
B|----------------------------------------------------------|
E|----------------------------------------------------------|
You say it's too late to make it,
 But is it too late to try?
 And in our time that you wasted
 All of our bridges burned down.

Pre-chorus 2
E|----------------------------------------------------------------------------------------|
A|----------------------------------------------------------------------------------10-7--|
D|11-11-11-11-9-11-11-11-11-9-11-11-11-11-9 -12-11-9-9-7-7--------------------------------|
G|----------------------------------------------------------------------------------------|
B|----------------------------------------------------------------------------------------|
E|----------------------------------------------------------------------------------------|
I've wasted my nights,
 You turned out the lights
 Now I'm paralyzed,
 Still stuck in that time,

E|---------------------------------------------------------------------------------------|
A|---------------------------------------------------------------------------------------|
D|11-11-11-11-9-11-11-11-11-9-11-11-11-11-9 -12-11-9-------------------------------------|
G|---------------------------------------------------------------------------------------|
B|---------------------------------------------------------------------------------------|
E|---------------------------------------------------------------------------------------|
When we called it love,
 But even the sun sets in paradise.

E|-----------------------------------------------------------------------------|
A|----------12s14-12-12p11-----------------------------------------------------|
D|8-9s11 -----------------------11-9-9-9p8---9-8-------------------------------|
G|-------------------------------------------------9-----9s11-9-11s13-11--9-9--|
B|-----------------------------------------------------------------------------|
E|-----------------------------------------------------------------------------|
I'm at a payphone trying to call home
 All of my change I spent on you
E|---------------------------------------------------------------------------------------|
A|--------------15s17-15-15p14-----------------------------------------------------------|
D|11-12s14 -----------------------14--12-12p11------12-11--------------------------------|
G|----------------------------------------------------------12--------12s14-12-14s16-14--|
B|---------------------------------------------------------------------------------------|
E|---------------------------------------------------------------------------------------|
Where have the times gone, baby it's all wrong
 Where are the plans we made for two?

E|-----------------------------------------------------------|
B|--0--4--5--4--2--2--0--0--2--4--4--5--4--2--2--0--0--7--2--|
G|-----------------------------------------------------------|
D|-----------------------------------------------------------|
A|-----------------------------------------------------------|
E|-----------------------------------------------------------|
If "Happy Ever After" did exist,
 I would still be holding you like this
E|---------------------------------------------------------------|
B|16-16-17-16-14-14-12-12-14s16~--16-16-17-16-14-14-12-12-19-14--|
G|---------------------------------------------------------------|
D|---------------------------------------------------------------|
A|---------------------------------------------------------------|
E|---------------------------------------------------------------|
All those fairy tales are full of shit
 One more fucking love song, I'll be sick.

E|-------------------------|
B|--12--16--17-16-14--12---|
G|-------------------------|
D|-------------------------|
A|-------------------------|
E|-------------------------|
Now i'm at a payphone.
Tap to rate this tab
# A B C D E F G H I J K L M N O P Q R S T U V W X Y Z