Song name
# A B C D E F G H I J K L M N O P Q R S T U V W X Y Z

Maroon 5 - Goodnight Goodnight tab

-------------------------------------------------------------------------------
                       Goodnight Goodnight - Maroon 5
-------------------------------------------------------------------------------
Tabbed by: gtudor25 

Hello. This is the tab and chords for the whole song. I think it is a pretty easy 
and accurate way to play it. (The single notes in the chorus and some in the outro 
are heard in the background and are nice to add to make the song more dynamic. I 
recommend using a loop pedal to add layers.) Enjoy!

Tuning: Standard (EADGBE)

Chords Used: Key of D
Verses: Bm - G - D - A     
Chorus: D - A - Bm - G
Bridge: Bm - G - D - A

D - XX0232
A - X02220
Bm - X24432
G - 320033

Intro
e|---------------------------------------------------------------------|
B|---------3---------------2-----------------3--------------2---0------|
G|-------4----4---4------4----4---4--------0---0---0------0-------0----|
D|-----4--------4------4--------4--------0-------0------0-----------4--|
A|---2---------------2-------------------------------------------------|
E|-------------------------------------3--------------3----------------|

Verse 1
e|--------------------------------------------------------------------|
B|---------3---------------2-----------------3--------------2---------|
G|-------4----4---4------4----4---4--------0---0---0------0---0---0---|
D|-----4--------4------4--------4--------0-------0------0-------0-----|
A|---2---------------2------------------------------------------------|
E|-------------------------------------3--------------3---------------|

e|--------2---------------------------|
B|------3----3---3--------2---0-------|
G|----2--------2--------2-------0-----|
D|--0-----------------2-----------4---|
A|------------------0-----------------|
E|------------------------------------|

e|-------------------------------------------------------------------|
B|---------3---------------2-----------------3--------------2--------|
G|-------4----4---4------4----4---4--------0---0---0------0---0---0--|
D|-----4--------4------4--------4--------0-------0------0-------0----|
A|---2---------------2-----------------------------------------------|
E|-------------------------------------3--------------3--------------|

e|--------2-----------------0------0---|
B|------3----3---3--------2---2----2---| <--- A (chord), played x10, building 
G|----2--------2--------2----------2---|                         to start of chorus     
D|--0------------------------------2---|
A|------------------0--------------0---|
E|-------------------------------------|


Chorus: "I'm sorry, I did not mean..."

          D              A             Bm            G        
e|-------10--(10)--(10)-------------------------------------|
B|----------------------10----------------------------------| 
G|-------------------------------------12---(12)----(11)----|       (x4)
D|----------------------------------------------------------|
A|----------------------------------------------------------|
E|----------------------------------------------------------|

"So goodnight, goodnight..." 

          D              A             Bm            G
e|--------10-------------9----------------------------------|       
B|-------------------------------------12-----------10------|
G|----------------------------------------------------------|      (x2)
D|----------------------------------------------------------|
A|----------------------------------------------------------|
E|----------------------------------------------------------|

"Goodnight, hope that things work out all right..."
   
    A
e|--12-12-12-12-12-12-12-12---| <--- Fade out
B|----------------------------| 
G|----------------------------|
D|----------------------------|
A|----------------------------|
E|----------------------------|

Intro

Verse 2 (Played just like Verse 1)

Chorus


Bridge:  Bm    G    D    A (x2) 

     e|---2----3----2----0----|
     B|---3----3----3----2----|  <--- (Second time through chord progression, 
     G|---4----0----2----2----|
     D|---4----0----0----2----|                  strum "A" x8 to build for final chorus)
     A|---2----2---------0----|
     E|--------3--------------|


Chorus


Outro - (Notes in parenthesis are played on another guitar)
e|-(12)-----------------------------------------------------------------------|
B|---------------------------------(12)-------------------------------(10)----|
G|--9--11---9--11---9--11---9--11---9--11---9--11---9--11---9--11---9--11-----|
D|--------12------12------12------12------12------12------12------12------12--|
A|----------------------------------------------------------------------------|
E|----------------------------------------------------------------------------|

Let music ring/fade out, accept applause

(Comment questions, corrections, etc. that you have.)
Thanks for viewing my tab!     - Gtudor25
Tap to rate this tab
 
# A B C D E F G H I J K L M N O P Q R S T U V W X Y Z