Guitaretab - guitar tabs
Song name
# A B C D E F G H I J K L M N O P Q R S T U V W X Y Z

Maroon 5 - Tangled tab

The other version was very good but here's the little riff too.

Artist: Maroon 5
Song: Tangled
Album: Songs About Jane

VERSE(and intro):

Here's the little riff. Play it (sometimes only parts of it) through the entire verse
e|-----------------------------------------------------------------|
B|-----------------------------------------------------------------|
G|--------------------------------------5-4------------------------|
D|7-7-5-7----7-5-7--------7-7-5-7---5-7-----7----------------------|
A|---------7----------------------7--------------------------------|S
E|-----------------------------------------------------------------|stinker

[ Tab from: http://www.guitaretab.com/m/maroon-5/48937.html ]
CHORUS:
      Am      E                  C                    D
e|-----0------0------------------0--------------------2------------|
B|-----1------0------------------1--------------------3------------|
G|-----2------1------------------0--------------------2------------|
D|-----2------2------------------2--------------------0------------|
A|-----0------2------------------3---------------------------------|
E|------------0----------------------------------------------------|
...to say to you that you wanna hear that you wanna know

                  F                   E             Am
e|----------------1-------------------0-------------0--------------|
B|----------------1-------------------0-------------1--------------|
G|----------------2-------------------1-------------2--------------|
D|----------------3-------------------2-------------2--------------|
A|----------------3-------------------2-------------0--------------|
E|----------------1-------------------0----------------------------|
I think I should go the things I've done are way to shameful

Interlude:
e|-----------------------------------------------------------------|
B|-----------------------------------------------------------------|
G|---------------------------------------------X2-----------------|
D|------2-0--0-----------------------------------------------------|
A|3-0-3--------3-3-0-3-0--0-0-3-0----------------------------------|
E|---------------------------------3h4-----------------------------|
It stops in the middle of the interlude thats why i wrote "X2"

Song order:
Intro
Verse 1
Chorus
Verse 2
Chorus
Interlude
Chorus 'till end :-D

ENJOY!!!
Related for Tangled tab