Guitaretab - guitar tabs
Song name
# A B C D E F G H I J K L M N O P Q R S T U V W X Y Z

Maroon 5 - Ragdoll tab

------------------12b12-12-12-12-12b-12b--10~------10------------| 
--------10-12-10------------------------------10-12----10h12p10\9-|
--10-11-----------------------------------------------------------| 
------------------------------------------------------------------| 
------------------------------------------------------------------| 
------------------------------------------------------------------|
[ Tab from: http://www.guitaretab.com/m/maroon-5/56852.html ]
-------------------------------------10b-9-7-9-10------------| 
------------------------------7h10p7-------------------------|
--------7h9p7---9b-9b-----9b---------------------------------| 
-0h7h9--------9----------------------------------------------| 
-------------------------------------------------------------| 
-------------------------------------------------------------|

-10b-12b10h12p10-------12b-----------| 
------------------12------------------|
---------------------9----------------| 
--------------------------------------| 
--------------------------------------| 
--------------------------------------|
Related for Ragdoll tab