Song name
# A B C D E F G H I J K L M N O P Q R S T U V W X Y Z

Maroon 5 - She Will Be Loved Acoustic tab

Band - Maroon 5 (Acoustic)
Song - She Will Be Loved (from 1.22.03. Acoustic)


Intro:
e|--------------------------------3---------------------------|
B|----4-4-4-4-------3-3-------------4-4-4-4-------3-----------|
G|----------------------3-3-------------------------3-3-------|
D|----------------3------3----------------------3----3--------|
A|--3-----------1-------------3---------------1-----------3---|
E|------------------------------------------------------------|


Verse:
e|--------------------------------3---------------------------|
B|----4-4-4-4-------3-3-------------4-4-4-4-------3-----------|
G|----------------------3-3-------------------------3-3-------|
D|----------------3------3----------------------3----3--------| x4
A|--3-----------1-------------3---------------1-----------3---|
E|------------------------------------------------------------|

Chorus:
e|-----------------------------------------------------------------|
B|-----------------------------------------------------------------|
G|--8-8-8-8-8-8-8-8-7-7-7-7-7-7-7-7-5-5-5-5-5-5-5-5-5-5-5-5-5-5-5-5|
D|--8-8-8-8-8-8-8-8-8-8-8-8-8-8-8-8-5-5-5-5-5-5-5-5-6-6-6-6-6-6-6-6|  x4
A|--6-6-6-6-6-6-6-6-8-8-8-8-8-8-8-8-3-3-3-3-3-3-3-3-6-6-6-6-6-6-6-6|
E|------------------6-6-6-6-6-6-6-6-----------------4-4-4-4-4-4-4-4|

Bridge:
e|-------------------------------3-------------|
B|-----4-4-4-4-------3-3-----------4-4-4-4-----|
G|-----------------------3---3-----------------|
D|----------------3--------3-------------------|
A|--3-----------1--------------3------------1--|
E|---------------------------------------------|

Chorus:
e|-----------------------------------------------------------------|
B|-----------------------------------------------------------------|
G|--8-8-8-8-8-8-8-8-7-7-7-7-7-7-7-7-5-5-5-5-5-5-5-5-5-5-5-5-5-5-5-5|
D|--8-8-8-8-8-8-8-8-8-8-8-8-8-8-8-8-5-5-5-5-5-5-5-5-6-6-6-6-6-6-6-6|  x6
A|--6-6-6-6-6-6-6-6-8-8-8-8-8-8-8-8-3-3-3-3-3-3-3-3-6-6-6-6-6-6-6-6|
E|------------------6-6-6-6-6-6-6-6-----------------4-4-4-4-4-4-4-4|
Tap to rate this tab
 
# A B C D E F G H I J K L M N O P Q R S T U V W X Y Z