Song name
# A B C D E F G H I J K L M N O P Q R S T U V W X Y Z

Mars Volta - Ilyena tab

-------------------------------------------------------------------------------
			     ILYENA - The Mars Volta
-------------------------------------------------------------------------------
Tabbed by: dylanspader
Email: dylanspader@comcast.net

     1:03-1:20
     2:31-2:40                    1:20-1:37
e|--------------------------|-23/--15-17-18--20--14--------------------------|
B|----10-11-10---13------15-|------------------------------------------------|
G|-12-----------------------|------------------------------------------------|
D|--------------------------|------------------------------------------------|
A|--------------------------|------------------------------------------------|
E|--------------------------|------------------------------------------------|

    1:42-2:04
e|--------------------------------------------|------------------------------|
B|------------------------------------------3-|------------------------------|
G|-----3---3-----3---3----3---3----6---6-5-3--|------------------------------|
D|-345---5---535---5---35---5---53------------|------------------------------|
A|--------------------------------------------|------------------------------|
E|--------------------------------------------|------------------------------|
 |                                            |
 |                                            |
 |    Harmony: 1:55-2:04                      |
e|---------------------------------5-6-5------|------------------------------|
B|-----6---6-----6---6----6---6-----------8-6-|------------------------------|
G|-567---7---757---7---57---7---57------------|------------------------------|
D|--------------------------------------------|------------------------------|
A|--------------------------------------------|------------------------------|
E|--------------------------------------------|------------------------------|


       2:04 - 2:21
e|--------108-9-6---------108-9-6|-------------------------------------------|
B|-8-8-8-----------8-88-8--------|-------------------------------------------|
G|--------7-5-6-3---------7-5-6-3|-------------------------------------------|
D|-5-5-5-----------5-55-5--------|-------------------------------------------|
A|-------------------------------|-------------------------------------------|
E|-------------------------------|-------------------------------------------|


  Chorus: 2:40-3:16
e|---------------------------------------------------------------------------|
B|---------------------------------------------------------------------------|
G|---------------------------------------------------------------------------|
D|---------------------------------------------------------------------------|
A|---------------------------------------------------------------------------|
E|-3---------------3---------------8-----------------8--------------6-3------|
                                                                    into solo

   Solo (From what I've made of it): 3:16-3:34
e|-----------------------------------------4^--4-----------------------------|
B|---------------------------------------------------------------------------|
G|-3---3-5^-----3---3--------------------------------------------------------|
D|---5--------5---5---3~~~~---------5^--5------------------------------------|
A|---------------------------3-----------------------------------------------|
E|---------------------------------------------------------------------------|
The next part of the solo is with the track backwards.

| /  slide up
| \  slide down
| h  hammer-on
| p  pull-off
| ~  vibrato
| +  harmonic
| x  Mute note
===============================================================================
Tap to rate this tab
# A B C D E F G H I J K L M N O P Q R S T U V W X Y Z