Song name
# A B C D E F G H I J K L M N O P Q R S T U V W X Y Z

Mars Volta - Since Weve Been Wrong tab

#----------------------------------PLEASE NOTE---------------------------------#
#This file is the author's own work and represents their interpretation of the #
#song. You may only use this file for private study, scholarship, or research. #
#------------------------------------------------------------------------------##


Artist: The Mars Volta
Song: Since We've Been Wrong
Tabbed by: Manthony
06.02.09


TUNING: (E A D G B E)



//////////////////////////////////////////
     Am   C    G    F7M     Dm   E      
E||--0----0----3----0----|--1----0----
B||--1----1----3----1----|--3----0----
G||--2----0----0----2----|--2----1----
D||--2----2----0----3----|--0----2----
A||--0----3----2----3----|-------2----
E||------------3----1----|-------0----
//////////////////////////////////////////



(1:37)

E||----------------------------0-------------------0~--||
B||-----1-----0--------------1---1----------1------1~--||
G||-----------------0------2-------2------2---2----2~--|| REPEAT
D||---2-----2------------3--------------2-------2--2~--||
A||-0-----3-------2----3--------------0------------0~--||
E||-------------3--------------------------------------||



(Right)

E||-17-----15---------------------|-17-----15---------------17--||
B||----17-----15--17----15--------|----17-----15--17----15------||
G||------------------17--------16-|------------------17---------|| REPEAT
D||-------------------------------|-----------------------------||
A||-------------------------------|-----------------------------||
E||-------------------------------|-----------------------------||

(Left)

E||-------------------------------|-----------------------------||
B||-17-----15-----12--------------|-17----15-----12---------17--||
G||----16-----14-----12--14-------|----16----14-----12-14-------|| REPEAT
D||----------------------------14-|-----------------------------||
A||-------------------------------|-----------------------------||
E||-------------------------------|-----------------------------||


Do you remember how you wore that dress?
It slit my sight beneath the eyelids
Do you remember what you said to me?
What course has given you the right to stray?

And in your living tomb I'm stuck but safe
The clocks are ticking fast with every breath




2:17

E||------7-8-7-----------8-7-8-7------------------||
B||---10--------------10---------8---10-----------||
G||-9---------------9---------------------8^full--|| 
D||-----------------------------------------------||
A||-----------------------------------------------||
E||-----------------------------------------------||

E||------7-8-7-----------8-7------------------11^half--||
B||---10--------------10-----10--8----/10--------------||
G||-9---------------9----------------------------------|| 
D||----------------------------------------------------||
A||----------------------------------------------------||
E||----------------------------------------------------||





.........................................................................................

                 Dm
Since we've been wrong
          Am
I've been part awake
		 Dm
Since we've been wrong
                     Am
you will never, ever know me
                 Dm
What took you so long?
        Am
I'm not sure all the way
       E
But my heart, it asks
just one more time

Are you still a mess?


Lead

E||--------19-20-19--17-15-17----|-------19-20-19--17-15-17-----||
B||--17-18--------------------17-|-17-18--------------------17--||
G||------------------------------|------------------------------|| 
D||------------------------------|------------------------------||
A||------------------------------|------------------------------||
E||------------------------------|------------------------------||


E||--------19-20-19--17-15-17-----22-20-19-17-19-20-19-17-17---17-15-17-19-19-20--||
B||--17-18------------------------------------------------------------------------||
G||-------------------------------------------------------------------------------|| 
D||-------------------------------------------------------------------------------||
A||-------------------------------------------------------------------------------||
E||-------------------------------------------------------------------------------||


.........................................................................................




E||----------------------------0-------------------0~--||
B||-----1-----0--------------1---1----------1------1~--||
G||-----------------0------2-------2------2---2----2~--|| REPEAT
D||---2-----2------------3--------------2-------2--2~--||
A||-0-----3-------2----3--------------0------------0~--||
E||-------------3--------------------------------------||



(Right)

E||-17-----15---------------------|-17-----15---------------17--||
B||----17-----15--17----15--------|----17-----15--17----15------||
G||------------------17--------16-|------------------17---------|| REPEAT
D||-------------------------------|-----------------------------||
A||-------------------------------|-----------------------------||
E||-------------------------------|-----------------------------||

(Left)

E||-------------------------------|-----------------------------||
B||-17-----15-----12--------------|-17----15-----12---------17--||
G||----16-----14-----12--14-------|----16----14-----12-14-------|| REPEAT
D||----------------------------14-|-----------------------------||
A||-------------------------------|-----------------------------||
E||-------------------------------|-----------------------------||



One day a rain will come to wash away
the earth that held us was no island
I have become ingrown inside this skin
I'll find a way out through those eyelids

And all the days become a castaway
I seem to think I don't belong here



4:04


E||------8-7-------------8-7-8-7--8----10---------||
B||---10--------------10----------------------12--||
G||-9---------------9-----------------------------|| 
D||-----------------------------------------------||
A||-----------------------------------------------||
E||-----------------------------------------------||

E||------7-8-7-----------8-7------------------11^half--||
B||---10--------------10-----10--8----/10--------------||
G||-9---------------9----------------------------------|| 
D||----------------------------------------------------||
A||----------------------------------------------------||
E||----------------------------------------------------||




.........................................................................................


                 Dm
Since we've been wrong
          Am
I've been part awake
		 Dm
Since we've been wrong
                     Am
you will never, ever know me
                 Dm
What took you so long?
        Am
I'm not sure all the way
       E
But my heart, it asks
just one more time

Are you still a mess?


Lead

E||--------19-20-19--17-15-17----|-------19-20-19--17-15-17-----||
B||--17-18--------------------17-|-17-18--------------------17--||
G||------------------------------|------------------------------|| 
D||------------------------------|------------------------------||
A||------------------------------|------------------------------||
E||------------------------------|------------------------------||


E||--------19-20-19--17-15-17-----22-20-19-17-19-20-19-17-17---17-15-17-19-19-20--||
B||--17-18------------------------------------------------------------------------||
G||-------------------------------------------------------------------------------|| 
D||-------------------------------------------------------------------------------||
A||-------------------------------------------------------------------------------||
E||-------------------------------------------------------------------------------||


.........................................................................................


BRIDGE



Am        G         F7M
I don't belong here, I shouldn't stay
Am	     G             F7M
What falls inside me grows empty
Am          G       F7M
The walls between us will never break
Am           G              F7M
Just seal it shut, it grows empty




.........................................................................................


                 Dm
Since we've been wrong
          Am
I've been part awake
		 Dm
Since we've been wrong
                     Am
you will never, ever know me
                 Dm
What took you so long?
        Am
I'm not sure all the way
       E
But my heart, it asks
just one more time

Are you still a mess?


Lead

E||--------19-20-19--17-15-17----|-------19-20-19--17-15-17-----||
B||--17-18--------------------17-|-17-18--------------------17--||
G||------------------------------|------------------------------|| 
D||------------------------------|------------------------------||
A||------------------------------|------------------------------||
E||------------------------------|------------------------------||


E||--------19-20-19--17-15-17-----22-20-19-17-19-20-19-17-17---17-15-17-19-19-20--||
B||--17-18------------------------------------------------------------------------||
G||-------------------------------------------------------------------------------|| 
D||-------------------------------------------------------------------------------||
A||-------------------------------------------------------------------------------||
E||-------------------------------------------------------------------------------||


.........................................................................................












#----------------------------------PLEASE NOTE---------------------------------#
#This file is the author's own work and represents their interpretation of the #
#song. You may only use this file for private study, scholarship, or research. #
#------------------------------------------------------------------------------##




Tap to rate this tab
 
# A B C D E F G H I J K L M N O P Q R S T U V W X Y Z