Song name
# A B C D E F G H I J K L M N O P Q R S T U V W X Y Z

Mars Volta - Luciforms chords

Highlighted       Show chord diagrams
The Mars Volta - Luciforms

Haven't compared this tab to the song directly.
But fits to my hear.
Played on an Acoustic Guitar.

Intro/Verse Chords:
   C5    Cm     C    Cm3
E|-----|-----|-----|-----|
B|--1--|--1--|--1--|--4--|
G|--0--|--0--|--0--|--0--|
D|--x--|--1--|--2--|--2--|
A|--3--|--3--|--3--|--3--|
E|-----|-----|-----|-----|

Chorus Chords:
    C     E*    D*    F*    G* 
E|-----|-----|-----|-----|-----|
B|--1--|--4--|--3--|--6--|--8--|
G|--0--|--0--|--0--|--0--|--0--|
D|--2--|--5--|--4--|--7--|--9--|
A|--3--|--6--|--5--|--8--|-10--|
E|-----|-----|-----|-----|-----|

Bridge Chords:
    C    F#5   Am   D#sus2
E|--0--|--2--|--0--|--1--|
B|--1--|--2--|--1--|--4--|
G|--0--|--3--|--2--|--3--|
D|--2--|--4--|--2--|--1--|
A|--3--|--4--|--0--|--1--|
E|-----|--2--|-----|-----|

Solo/Outro Chords:
   Cm5   F#7  Asus4 D#sus2  Am 
E|--3--|--2--|--0--|--6--|--5--|
B|--4--|--2--|--0--|--6--|--5--|
G|--5--|--3--|--2--|--8--|--5--|
D|--5--|--2--|--0--|--8--|--7--|
A|--3--|--4--|--0--|--6--|--7--|
E|-----|--2--|-----|-----|--5--|


Intro: C5 Cm C5 Cm

Verse:
C5
How much do you make in that death factory
C5
Severance owed in the chamber of revolvers
C5
Empty jails fall from my scalp
C5
Shake the globe and let me out
C5                Cm
If still I can remember the day
Cm
That they took you from me


Chorus:
[Palm Mute]          C         E*
Seems like I've been running
          D*             F*
From your trenchant memory
C               E*                D*     G* F* E* D*  
Harpsickle will warn me when it's over
C              E*
'Cuz if heaven breathes
     D*                        F*
Then someone trade places with me
C                    E*   D*                  G* F* E* D*
'Cuz I don't want to tear feathers instead of rags


Verse: C Cm3 C Cm3

C
When do I get to see the body preserved inside this grin
C
Sewn in the lips were her last words
C
I'll be damned - I can still hear her laughing
C
Your angels have tangled their brass again
C
The comfort of doubt still keeps you thin
C               Cm
And still I can remember the day
                        C
That they took you from me

Chorus:
                     C         E*
Seems like I've been running
          D*             F*
From your trenchant memory
C               E*                D*     G* F* E* D*  
Harpsickle will warn me when it's over
C              E*
'Cuz if heaven breathes
     D*                        F*
Then someone trade places with me
C                    E*   D*                  G* F* E* D*
'Cuz I don't want to tear feathers instead of rags


Bridge: C F#5 Am D#sus2 x2

          C           F#5
Does your temperature ache
        Am             D#sus2
Is your glass 'bout to break
        C           F#5
Are you purple with current
         Am             D#sus2
Will you now become the servant
        C                  F#5
Gordian knots in the power lines
Am                         D#sus2
Saucer fills to empty with pesticide
         C           F#5
Like the pharaohs of old
Am         D#sus4
Bury me in gold
               C             F#5
I'll make your son refuse to fight
       Am                      D#sus2
In the stalk home setting that we provide
        C                   F#5
If your heart does cease to speak
   Am                              D#sus2
My fingernail choir will make your chalkboard sing


Solo: Cm5 F#7 Asus4 D#sus2 x4

Outro: Cm5 F#7 Am D#sus2 x3
       Cm5 F#7 Am

E|---------------------------------------------------|
B|---------------------------------------------------|
G|----------------------------------12--10---8---7---|
D|--10---8---7---6--13--12--10---8---x---x---x---x---|
A|---x---x---x---x---x---x---x---x--10---8---6---5---|
E|---8---6---5---4--11--10---8---6-------------------|

E|---0-------------------|
B|---1---------1---------|
G|---0---------1---------|
D|---2---------1---------|
A|---3---------x---------|
E|-------------4---------|

Fin.
Tap to rate this tab
# A B C D E F G H I J K L M N O P Q R S T U V W X Y Z