Song name
# A B C D E F G H I J K L M N O P Q R S T U V W X Y Z

Mars Volta - Concertina tab

I might tab the rest later. This is played in standard tuning.
Enjoy!!!

E--8----6----4----------|
B--8----6----4----6-----|
G--x----x----x----x-----|
D--x----x----x----5-----|
A--x----6----x----x-----|
E--8---------4----6-----|

E--------------------------------------------------------------|
B------------------------------13----------12----------15------|
G---------0-----------------0----------12------12--------------|
D-----13-----13--s--12-------------12--------------12----------|
A--15-------------------13-------------------------------------|
E--------------------------------------------------------------|

E-----------------------------------------15-------------------|
B---------------------------------------------15--16-----------|
G------------------13------15--s--13------------------16-------|
D--------------12------12-------------12-----------------------|
A------14--11--------------------------------------------------|
E--15----------------------------------------------------------|
Tap to rate this tab
 
# A B C D E F G H I J K L M N O P Q R S T U V W X Y Z