Song name
# A B C D E F G H I J K L M N O P Q R S T U V W X Y Z

Mars Volta - This Apparatus Must Be Unearthed tab

NOTE* I did not tab this out myself i just transferred it from the Power Tab that was on 
ENJOY!


-------------------------------------------------------------------------------
	         This Apparatus Must Be Unearthed
-------------------------------------------------------------------------------

- ( ) let notes ring..
- \ / slide notes..
- ~~~ bend notes..

	Intro

e|-13-13-13-13-13-13-13-13-13-13-13-13-|-12-12-12-12-12-12-12-12-12-12-12-12-|
B|-12-12-12-12-12-12-12-12-12-12-12-12-|-12-12-12-12-12-12-11-11-11-11-11-11-|
G|-------------------------------------|-------------------------------------| x4
D|-------------------------------------|-------------------------------------|
A|-------------------------------------|-------------------------------------|
E|-------------------------------------|-------------------------------------|

	Intro Chorus

e|-13-13-13-13-13-13-13-13-13-13-13-13-|-12-12-12-12-12-12-12-12-12-12-12-12-|
B|-12-12-12-12-12-12-12-12-12-12-12-12-|-12-12-12-12-12-12-11-11-11-11-11-11-|
G|-------------------------------------|-------------------------------------| x7
D|-------------------------------------|-------------------------------------|
A|-------------------------------------|-------------------------------------|
E|-------------------------------------|-------------------------------------|

	Last time with slide at the end...

e|-13-13-13-13-13-13-13-13-13-13-13-13-|-12-12-12-12-12-12-12-12-12-12-12-12-13\\\-|
B|-12-12-12-12-12-12-12-12-12-12-12-12-|-12-12-12-12-12-12-11-11-11-11-11-11-12\\\-|
G|-------------------------------------|-------------------------------------------|
D|-------------------------------------|-------------------------------------------|
A|-------------------------------------|-------------------------------------------|
E|-------------------------------------|-------------------------------------------|

	1st Verse

e|-------------------------------6-----|--7---6---9------(9)\-------------7----------|
B|----------------------------------7--|----------------------6-------6--------------|
G|-------------------------------------|--------------------------7------------------|
D|-------------------------------------|---------------------------------------------|
A|-------------------------------------|---------------------------------------------|
E|-------------------------------------|---------------------------------------------|

e|----(7)------------------------------|-----------7-----------------------------|
B|-------------------------------------|--6-----6-----6----------------------6---|
G|-------------------------------------|-----7--------------7\\\4--------4-------|
D|-------------------------------------|---------------------------4-------------|
A|-------------------------------------|-----------------------------------------|
E|-------------------------------------|-----------------------------------------|

e|-------------------------------------|----------------------------------5------|
B|----(6)------------------------------|-3--0--------------------4--0--3---------|
G|-------------------------------------|-------4--0-----5--0--4------------------|
D|-------------------------------------|-------------4---------------------------|
A|-------------------------------------|-----------------------------------------|
E|-------------------------------------|-----------------------------------------|

e|-----------------------------10------|---9--12-(12)~~~~~~~~~~(12)\------------7-----|
B|----------12--(12)---------------12--|-----------------------------6-------6--------|
G|------11-----------------------------|---------------------------------7------------|
D|-------------------------------------|----------------------------------------------|
A|-------------------------------------|----------------------------------------------|
E|-------------------------------------|----------------------------------------------|

		*use random note picking and sliding for chorus build up on 2nd bar...
e|----(7)------------------------------|-----------------------------------------|
B|-------------------------------------|-----------------------------------------|
G|-------------------------------------|-----------------------------------------|
D|-------------------------------------|-----------------------------------------|
A|-------------------------------------|-----------------------------------------|
E|-------------------------------------|-----------------------------------------|

	2nd Chorus

e|-13-13-13-13-13-13-13-13-13-13-13-13-|-12-12-12-12-12-12-12-12-12-12-12-12-|
B|-12-12-12-12-12-12-12-12-12-12-12-12-|-12-12-12-12-12-12-11-11-11-11-11-11-|
G|-------------------------------------|-------------------------------------| x7
D|-------------------------------------|-------------------------------------|
A|-------------------------------------|-------------------------------------|
E|-------------------------------------|-------------------------------------|

e|-13-13-13-13-13-13-13-13-13-13-13-13-|-12-12-12-12-12-12-12-12-12-12-12-12-13\\\-|
B|-12-12-12-12-12-12-12-12-12-12-12-12-|-12-12-12-12-12-12-11-11-11-11-11-11-12\\\-|
G|-------------------------------------|-------------------------------------------|
D|-------------------------------------|-------------------------------------------|
A|-------------------------------------|-------------------------------------------|
E|-------------------------------------|-------------------------------------------|

	2nd Verse

e|---------------------9---------------|-------------------7---------------------|
B|---------11------11--------12\\\\\\--|--------6-------6-----6------------------|
G|-----11------11----------------------|------------7-------------7--------------|
D|-------------------------------------|-----------------------------------------|
A|-------------------------------------|-----------------------------------------|
E|-------------------------------------|-----------------------------------------|

e|----------------3---(3)--------(3)---|-----6--7--9--6-----(6)------(6)---------|
B|-------------2-----------------------|--7--------------------------------------|
G|-(7)------0--------------------------|-----------------------------------------|
D|-------4-----------------------------|-----------------------------------------|
A|-------------------------------------|-----------------------------------------|
E|-------------------------------------|-----------------------------------------|

e|--10---------------------------------|----------------------------------5------|
B|------12-11---11\\\------------------|-3--0--------------------4--0--3---------|
G|--------------11\\\------------------|-------4--0-----5--0--4------------------|
D|-------------------------------------|-------------4---------------------------|
A|-------------------------------------|-----------------------------------------|
E|-------------------------------------|-----------------------------------------|

e|-------------------------------------|----------------------------------------------|
B|-------------------------------------|---(7)--let note ring---(7)-----------(7)-----|
G|-------------------------------------|----------------------------------------------|
D|-------------------------------------|----------------------------------------------|
A|-------------------------------------|----------------------------------------------|
E|-------------------------------------|----------------------------------------------|


  	*use random note picking and sliding for chorus build up on 2nd bar...
e|-------------------------------------|-----------------------------------------|
B|---(7)-------------------------------|-----------------------------------------|
G|-------------------------------------|-----------------------------------------|
D|-------------------------------------|-----------------------------------------|
A|-------------------------------------|-----------------------------------------|
E|-------------------------------------|-----------------------------------------|

	3rd Chorus

e|-13-13-13-13-13-13-13-13-13-13-13-13-|-12-12-12-12-12-12-12-12-12-12-12-12-|
B|-12-12-12-12-12-12-12-12-12-12-12-12-|-12-12-12-12-12-12-11-11-11-11-11-11-|
G|-------------------------------------|-------------------------------------| x8
D|-------------------------------------|-------------------------------------|
A|-------------------------------------|-------------------------------------|
E|-------------------------------------|-------------------------------------|

	SOLO, w/ Piano playing in the background....

e|---/14-------(14)--------------------------------------------------------------|
B|----------------------15-----17-----------14-----------------11--------7-------|
G|------------------16--------------------------12-------------------------------|
D|--------------------------------------------------11~~~~~~---------------------|
A|-------------------------------------------------------------------------------|
E|-------------------------------------------------------------------------------|

e|-------------17----------------------------------------------------------------|
B|---------------------------14-----(14)/15-\\\\\\\\7----------------------------|
G|----16--15--------------------------------------------------9-----(9)/16-------|
D|-------------------------------------------------------------------------------|
A|-------------------------------------------------------------------------------|
E|-------------------------------------------------------------------------------|

e|---/14-------(14)--------------------------------------------------------------|
B|----------------------15-----17-----------14-----------------11--------7-------|
G|------------------16--------------------------12-------------------------------|
D|--------------------------------------------------11~~~~~~---------------------|
A|-------------------------------------------------------------------------------|
E|-------------------------------------------------------------------------------|

e|-------------17----------------------------------------------------------------|
B|---------------------------14-----(14)/15-\\\\\\\\7----------------------------|
G|----16--15--------------------------------------------------9-----(9)/16-------|
D|-------------------------------------------------------------------------------|
A|-------------------------------------------------------------------------------|
E|-------------------------------------------------------------------------------|

	Bridge, w/ Piano playing in the background....

e|--14---(14)\\13----(13)\\12----(12)\\11----(11)\\10----(10)\\9----(9)\\7-------|
B|-------------------------------------------------------------------------------|
G|-------------------------------------------------------------------------------|
D|-------------------------------------------------------------------------------|
A|-------------------------------------------------------------------------------|
E|-------------------------------------------------------------------------------|

	last part of bridge @ approx (3:48)

e|-------------------------------------|-------------------------------------|
B|-------------------------------------|-------------------------------------|
G|-16-16-16-16-16-16-15-15-15-15-15-15-|-16-16-16-16-16-16-15-15-15-15-15-15-| x2
D|-x--x--x--x--x--x--x--x--x--x--x--x--|-x--x--x--x--x--x--x--x--x--x--x--x--|
A|-14-14-14-14-14-14-14-14-14-14-14-14-|-14-14-14-14-14-14-14-14-14-14-14-14-|
E|-------------------------------------|-------------------------------------|

e|--14---17----------------------------------------------------------------------------------------|
B|------------15---17------14-14-14-14-14-14-14-14-14-14-14-14-14-14-14-14-14-14-14-14-14-14-14-14-|
G|-------------------------------------------------------------------------------------------------|
D|-------------------------------------------------------------------------------------------------|
A|-------------------------------------------------------------------------------------------------|
E|-------------------------------------------------------------------------------------------------|

e|-13-13-13-13-13-13-13-13-13-13-13-13-|-12-12-12-12-12-12-12----------------|
B|-12-12-12-12-12-12-12-12-12-12-12-12-|-12-12-12-12-12-12-11----------------|
G|-10-10-10-10-10-10-10-10-10-10-10-10-|-9--9--9--9--9--9--9-----------------|
D|-------------------------------------|-------------------------------------|
A|-------------------------------------|-------------------------------------|
E|-------------------------------------|-------------------------------------|

	Last Chorus

e|-13-13-13-13-13-13-13-13-13-13-13-13-|-12-12-12-12-12-12-12-12-12-12-12-12-|
B|-12-12-12-12-12-12-12-12-12-12-12-12-|-12-12-12-12-12-12-11-11-11-11-11-11-|
G|-------------------------------------|-------------------------------------| x8
D|-------------------------------------|-------------------------------------|
A|-------------------------------------|-------------------------------------|
E|-------------------------------------|-------------------------------------|

	Outro, Reverse Drum Part, for guitar part i recommend just picking notes on the e string
          and lots of sliding up and down the neck with DELAY!!!, just make it sound cool...

e|-------------------------------------|-----------------------------------------|
B|-------------------------------------|-----------------------------------------|
G|-------------------------------------|-----------------------------------------|
D|-------------------------------------|-----------------------------------------|
A|-------------------------------------|-----------------------------------------|
E|-------------------------------------|-----------------------------------------|
Tap to rate this tab
# A B C D E F G H I J K L M N O P Q R S T U V W X Y Z