Song name
# A B C D E F G H I J K L M N O P Q R S T U V W X Y Z

Mars Volta - Sarcophagi tab

Help us improve GuitareTab! Take a short survey!
----------------------------------------------------------------------------
			Sarcophagi - The Mars Volta 
----------------------------------------------------------------------------
Tabbed by: tmv91
Email:

Tuning: regular

e|-7-12-----10----12-14--14-12----10-7----7-----7-----7---|
B|-0--0---0-----0-----0---------0----0------0-----0-----0-|
G|-7-12--12----12----12--------12----9--9-----9-----9-----|
D|-9-14--14----14-----x--------14----9--------------------|
A|-9-14--------------14--------------7--------------------|
E|-7--0------------------------------0--------------------|

e|-7-12-----10----12-14--14-12----10-7----7-----7-----7-----|
B|-0--0---0-----0-----0---------0----0------0-----0-----0---|
G|-7-12--12----12----12--------12----9--9-----9-----9-----9-|
D|-9-14--14----14-----x--------14----9----------------------|
A|-9-14--------------14--------------7----------------------|
E|-7--0------------------------------0----------------------|

e|-5----3---5-7--7-5---3-2----2-----0----2-----|
B|-0--0---0---0------0---0----------0----------|
G|-5--5---5---5------5---4--------4-4------4---|
D|-7--7---7---x------7---5--5---5---5--5-----5-|
A|-7----------7----------5----------5----------|
E|-5---------------------3----------3----------|

e|-7----5---3-5----3---0---------------------------------------------|
B|-0--0---0---0--0---0---7----7-----7-----7-----7/8---8-----7----7---|
G|-7--7---7---5--5---5---0------0-----0-----0---0-0-----0---0------0-|
D|-9--9---9---7--7---7---7--7-----7-----7-----7-7/8-8-----8-7--7-----|
A|-9---------------------x----------------------x-x---------x--------|
E|-7---------------------5----------------------5/6---------5--------|


| /  slide up
| \  slide down
| h  hammer-on
| p  pull-off
| ~  vibrato
| +  harmonic
| x  Mute note
============================================================================
Related for Sarcophagi tab