Song name
# A B C D E F G H I J K L M N O P Q R S T U V W X Y Z

Mars Volta - Rapid Fire Tollbooth tab

                          Rapid Fire Tollbooth

I did not tab the solo, and you have to listen to the song on youtube to get the correct 
but for the most part i believe i hit most of the notes.

      Main Riff
      Q         Q    Q    Q       Q     Q     H           Q     Q    H
E||----------------------------|-----------------------|-----------------------|
B||----------------------------|-----------------------|-----------------------|
G||*---------------------------|-----------------------|-----------------------|
D||*---------------------------|-----------------------|-------------2~--------|
A||---2h--------4----4---------|--2h----4~-------------|--2h----4--------------|
E||----------------------------|-----------------------|-----------------------|


                          Chorus
  H        H              Q      Q    Q    Q       Q    H        Q
---------------------||-------------------------|---------------------|
---------------------||-------------------------|---------------------|
--------------------*||*--4s-----6----6----6----|--6-------------4----|
--------------------*||*--4s-----6----6----6----|--6-------------4----|
---------------------||---2s-----4----4----4----|--4-------------2----|
--2--------3---------||-------------------------|---------------------|


  Q    Q    Q    Q       Q     Q    Q    Q        W
----------------------|------------------------|--------------------||
----------------------|------------------------|--------------------||
--6----6----6---------|--4s----6----6----6s----|--9----------------*||
--6----6----6---------|--4s----6----6----6s----|--9----------------*||
--4----4----4---------|--2s----4----4----4s----|--7-----------------||
----------------------|------------------------|--------------------||


  Q    Q    H           Q    Q    Q
---------------------|-----------------||
---------------------|-----------------||
---------------------|-----------------||
---------------------|-----------------||
--2------------------|-------2----3----||
-------4----3--------|--4--------------||


Bell
Tap to rate this tab
 
# A B C D E F G H I J K L M N O P Q R S T U V W X Y Z