Song name
# A B C D E F G H I J K L M N O P Q R S T U V W X Y Z

Mars Volta - Vermicide tab

         

  e|------------|--------------------(19)---------|-------------------------
  B|----17------|---15-----13--12-----------------|---17--------------------
  G|------------|---------------------------------|-------------------------
  D|------------|---------------------------------|-------------------------
  A|------------|---------------------------------|-------------------------
  E|------------|---------------------------------|-------------------------
  
  e|-----19-----------|-----------------------|------------(19)-------------
  B|------------------|-----17----------------|----12-----------------------
  G|------------------|-----------------------|-----------------------------
  D|------------------|-----------------------|-----------------------------
  A|------------------|-----------------------|-----------------------------
  E|------------------|-----------------------|-----------------------------
                         vocals start here
   Just mess with that the whole first verse

   This is played the same time as above

   e|-------------|---------------------------------------------------------
   B|-----0----0--|-----------------|--------------0------------------------
   G|-------0---0-|----0----0-------|------0----0----0----------------------
   D|--2----------|-2-----2---2-----|--2------2-----------------------------
   A|-------------|-----------------|---------------------------------------
   E|-------------|-----------------|---------------------------------------

  Chorus                                         Repeat 3x 
   e|-----------|---------------------------------------------
   B|-----------|---------------------------------------------
   G|-----------|---------------------------------------------      
   D|-----------|----4---4---4h5p4----/7---5--4---------------
   A|----7------|----2---5------------------------------------
   E|----0------|---------------------------------------------

    On the third repeat use this alternate ending on the second measure
   e|------------------------------------------------
   B|------------------------------------------------
   G|------------------------------------------------
   D|---4---4----------6b---4------5-----------------
   A|---2---5----------------------------------------
   E|------------------------------------------------

   e|----7b--7b--7b--5------5--7----5-5-----|-----------------------5-------
   B|--------------------8--------------8---|--5--7---8-8---5--7--8---------
   G|---------------------------------------|-------------------------------
   D|---------------------------------------|-------------------------------
   A|---------------------------------------|-------------------------------
   E|---------------------------------------|-------------------------------

   e|----------------------------------
   B|--5--7--8-8---5---7--8---5--3-----
   G|----------------------------------
   D|----------------------------------
   A|----------------------------------
   E|----------------------------------

       Well thats all I got but I'll be back with the solo soon.
Tap to rate this tab
# A B C D E F G H I J K L M N O P Q R S T U V W X Y Z