Song name
# A B C D E F G H I J K L M N O P Q R S T U V W X Y Z

Mars Volta - El Ciervo Vulnerado tab

Song: El Ciervo Vulrenado
Album: Amputechture
Artist: The Mars Volta
Tabbed By: Nathan Zwiener
Tuning: Standard (EADGBE)

This is the only Mars Volta song too weird for me. I'm only tabbing it
because there are none for it currently. Enjoy, if the sitar isn't making
you change the track already. Please give me feedback and ratings, please.

e|----------------------------------------------------9~--(8)-(9)-(8)-(9)-|
B|-------------8b---------------------------------------------------------|
G|-8---------8--------8---------8-10b~--8-----------8---------------------|
D|---10-8h10------------10-8h10-----------10-8-8-10-----------------------|
A|------------------------------------------------------------------------|
E|------------------------------------------------------------------------|

e|-8h9h10p8-10-10h11p10-(10h11p10)----------------------------------------------|
B|-----------------------------------8/10-9-8---8h9-8--8h9-8--8/11-11/13-11\8-8-|
G|------------------------------------------------------------------------------|
D|------------------------------------------------------------------------------|
A|------------------------------------------------------------------------------|
E|------------------------------------------------------------------------------|

  Skipping to 0:37
e|-12~-(12)/20~--(\)--8--\--------------------------------------------------|
B|--------------------0-------------8-7----------8-7-10-(\)---10\6-8\5-7----|
G|--------------------0--------8-10---------8-10----------------------------|
D|--------------------------10-----------10---------------------------------|
A|--------------------------------------------------------------------------|
E|--------------------------------------------------------------------------|

e|----------------------------------------------------------------------------------|
B|--------7----8------------12-10-----------12-10-14---14/11-12-11----------8----9~-|
G|-8-9-10---10-----10-12-13--------10-12-13-------------------------8-10-11---11----|
D|----------------------------------------------------------------------------------|
A|----------------------------------------------------------------------------------|
E|----------------------------------------------------------------------------------|

From 1:13-2:01 just make noises with your guitar and its effects.

  Respond to vocals, melody is similar.
e|------------------------------------------------------|
B|--------------------------------------8b--------------|
G|-8--10b--8--8-7------7--8-7--10b---------10-8-8-------|
D|------------------10---------------10-----------10----|
A|------------------------------------------------------|
E|------------------------------------------------------|

From 2:18-2:56 do the same as before, just make noises.

           Between these segments, make noise as you did before.
  Chorus                  3:41                           3:51
e|---------------------|------------------------------|------------------|
B|---------------------|-8h10h11---8h10h11--b12r11b12-|------------------|
G|-10---12--13--10---9-|------------------------------|--7--8--10--7--\--|
D|---------------------|------------------------------|------------------|
A|---------------------|------------------------------|------------------|
E|---------------------|------------------------------|------------------|

Again, noises 3:57-4:43.

   Between these segments, make noise as you did before.
  Chorus                (5:41) Mess with this, too quiet/fast
e|----------------------|------------------------------|
B|----------------------|-8h10h11---8h10h11--b12r11b12-|
G|--10---12--13--10---9-|------------------------------|
D|----------------------|------------------------------|
A|----------------------|------------------------------|
E|----------------------|------------------------------|

Around 6:30, the sax part from the intro comes back.
Just make noises with the sitar. Weird song...
Tap to rate this tab
# A B C D E F G H I J K L M N O P Q R S T U V W X Y Z