Guitaretab - guitar tabs
Song name
# A B C D E F G H I J K L M N O P Q R S T U V W X Y Z

Marshall Tucker Band - Searchin For A Rainbow tab

Band/Artist: Marshall Tucker Band
Song Title: Searchiní For A Rainbow
Album Title: Anthology
Part: Solo
Transcribed by: aig91
 



|  h = hammer on
|  p = pull off
|  b = full bend
|  r = release bend
|  / = slide up
|  \ = slide down
|  ~ = vibrato
|  PrBe = pre-bend




   2:23
e|--------------------------------------------------------------------|
B|-15b--15----------------15------------------------------------------|
G|----------14brp12--14b------14brp12--14~-----14p12---12-------------|
D|---------------------------------------------------------14--12-----|
A|--------------------------------------------------------------------|
E|--------------------------------------------------------------------|

[ Tab from: http://www.guitaretab.com/m/marshall-tucker-band/183586.html ]
e|--------------------------------------------------------------------|
B|----------------------------------------12----12-13-15-15b-15~------|
G|-------------11----11-12-11-12-14-12-14----14-----------------------|
D|-12-14-12-14----14--------------------------------------------------|
A|--------------------------------------------------------------------|
E|--------------------------------------------------------------------|


    PrBe        PrBe       PrBe        PrBe
e|---------------------12---------------------------------------------|
B|---------15---------------------15-----------------15---------------|
G|--14brb-------14brb------14brb-------14brp12--14b------14brp12------|
D|--------------------------------------------------------------------|
A|--------------------------------------------------------------------|
E|--------------------------------------------------------------------|


e|--------------------------------------------------------||
B|---------------------12--13--15----15/20--20b--20~~~----||
G|---------11--12--14-------------------------------------||
D|-12--14-------------------------------------------------||
A|--------------------------------------------------------||
E|--------------------------------------------------------||
Related for Searchin For A Rainbow tab