Marshall Tucker Band - Cant You See Acoustic tab

-------------------------------------------------------------------------------
			     Can't You See - Marshall Tucker Band
-------------------------------------------------------------------------------
Tabbed by:johndeeregreen
Email:lathem94@yahoo.com

Tuning:Standard

e|-------2-----------2----------------0----------0---------------------------|
B|--3-------3--------3----------3--------3-------3---------------------------|
G|----2--------2-----2------------0---------0----0---------------------------|
D|0------------------0---------------------------2---------------------------|
A|----------------------------3------------------3---------------------------|
E|---------------------------------------------------------------------------|

e|---------3-----------3----------------2-----------2------------------------|
B|---3---------3-------3----------3--------3--------3------------------------|
G|------0----------0---0------------2---------2-----2------------------------|
D|---------------------0-------0--------------------0------------------------|
A|---------------------2-----------------------------------------------------|
E|3--------------------3-----------------------------------------------------|
  V V ^ ^ V     V V ^ ^ V    V V ^ ^ V    V V ^ ^ V 
e|2-2-3-3-2-----0-0-3-3-0----3-3-3-3-3----2-2-3-3-2--------------------------|
B|3-3-3-3-3-----3-3-3-3-3----3-3-3-3-3----3-3-3-3-3--------------------------|
G|2-2-2-2-2-----0-0-0-0-0----0-0-0-0-0----2-2-2-2-2--------------------------|
D|0-0-0-0-0-----2-2-2-2-2----0-0-0-0-0----0-0-0-0-0--------------------------|
A|--------------3-3-3-3-3----2-2-2-2-2---------------------------------------|
E|---------------------------3-3-3-3-3---------------------------------------|
			   
This is my first tab so don't go to hard on me.
V-down stroke
^-up stroke
Tap to rate this tab
 
# A B C D E F G H I J K L M N O P Q R S T U V W X Y Z