Song name
# A B C D E F G H I J K L M N O P Q R S T U V W X Y Z

Marshall Tucker Band - Face Down In The Blues tab

Help us improve GuitareTab! Take a short survey!
Band: The Marshall Tucker Band
Song: Face Down In The Blues
Album: Face Down In The Blues
Tuning: Standard
Transcribed by: aig91
Additional info: Gtr 3 uses a wah pedal



Legend:
h = hammer on
p = pull off
b = full bend
^ = half bend
r = release bend
PrBe = pre-bend
/ = slide up
\ = slide down
x = muted note
PM = palm mute
P.H. = pinch harmonic
~ = vibrato



Intro: 

e|------------------------------------------------------|
B|------------------------------------------------------|
G|------------------------------------------------------| Gtr 1
D|-------9--9--7--7--------------9--9--7--7-------------|
A|-------------------9--9--------------------7h8h9------|
E|-7--7--------------------7--7-------------------------|
 |
e|------------------------------------------------------|
B|------------------------------------------------------|
G|------------------------------------------------7/8~--| Gtr 2
D|------------------------------------------------8/9~--|
A|------------------------------------------------------|
E|------------------------------------------------------|


e|------------------------------------------------------|
B|------------------------------------------------------|
G|------------------------------------------------------| Gtr 1
D|-------9--9--7--7--------------9--9--7--7-------------|
A|-------------------9--9--------------------7h8h9------|
E|-7--7--------------------7--7-------------------------|


e|------------------------------------------------------|
B|------------------------------------------------------|
G|------------------------------------------------------|
D|-------9--9--7--7--------------9--9--7--7-------7-----|
A|-------------------9--9--------------------7h9--------|
E|-7--7--------------------7--7-------------------------|


e|------------------------------------------------------|
B|------------------------------------------------------|
G|------------------------------------------------------|
D|-------9--9--7--7--------------9--9--7--7-------7-----|
A|-------------------9--9--------------------7h9--------|
E|-7--7--------------------7--7-------------------------|



Intro Solo:

                              P.H
e|------------------------------------------------------|
B|-x-x-x-7----------------------------------------------|
G|-x-x-x-7-----9-7--------7-9-9brp7---9-7---------------| Gtr 3
D|-----------------9~~--------------9-------9-7---7-9~~-| 
A|----------------------------------------------9-------|
E|------------------------------------------------------|



Verse 1:


e|------------------------------------------------------|
B|------------------------------------------------------|
G|------------------------------------------------------| Gtr 1
D|-------9--9--7--7--------------9--9--7--7-------7-----|
A|-------------------9--9--------------------7h9--------|
E|-7--7--------------------7--7-------------------------|


e|------------------------------------------------------|
B|------------------------------------------------------|
G|------------------------------------------------------|
D|-------9--9--7--7--------------9--9--7--7-------------|
A|-------------------9--9--------------------9--9-------|
E|-7--7--------------------7--7-------------------------|


e|------------------------------------------------------|
B|------------------------------------------------------|
G|-------9--9--7--7--------------9--9--7--7-------------|
D|-------------------9--9--------------------9--9-------|
A|-7--7--------------------7--7-------------------------|
E|------------------------------------------------------|


e|------------------------------------------------------|
B|------------------------------------------------------|
G|------------------------------------------------------|
D|-------9--9--7--7--------------9--9--7--7-------------|
A|-------------------9--9--------------------9--9-------|
E|-7--7--------------------7--7-------------------------|


e|------------------------------------------------------|
B|------------------------------------------------------|
G|-------11--11--9--9----------------9--9--7--7---------|
D|---------------------11--11--------------------9--9---|
A|-9--9------------------------7--7---------------------|
E|------------------------------------------------------|


e|------------------------------------------------------|
B|------------------------------------------------------|
G|------------------------------------------------------| Gtr 1
D|-------9--9--7--7--------------9--9--7--7-------7-----|
A|-------------------9--9--------------------7h9--------|
E|-7--7--------------------7--7-------------------------|
 |
e|------------------------------------------------------|
B|------------------------------------------------------|
G|----------------------------------7-9br-7-9-7---7~~\--| Gtr 2
D|------------------------------7-9-------------9-------| 
A|----------------------------9-------------------------|
E|------------------------------------------------------|



Verse 2: 

e|------------------------------------------------------|
B|------------------------------------------------------|
G|------------------------------------------------------| Gtr 1
D|-------9--9--7--7--------------9--9--7--7-------------|
A|-------------------9--9--------------------9--9-------|
E|-7--7--------------------7--7-------------------------|
 |
e|------------------------------------------------------|
B|------------------------------------------------------|
G|------------------------------------------------------| Gtr 2
D|-------------------------------------------7---9~~----| 
A|--------------------------------------------7---------|
E|---------------------------------------------7--------|


e|------------------------------------------------------|
B|------------------------------------------------------|
G|------------------------------------------------------| Gtr 1
D|-------9--9--7--7--------------9--9--7--7-------------|
A|-------------------9--9--------------------9--9-------|
E|-7--7--------------------7--7-------------------------|
 |
e|------------------------------------------------------|
B|-------------------------------------------10----10~--|
G|-------------------------------------------9br-7-9~---| Gtr 2
D|------------------------------------------------------| 
A|------------------------------------------------------|
E|------------------------------------------------------|


e|------------------------------------------------------|
B|------------------------------------------------------|
G|-------9--9--7--7--------------9--9--7--7-------------| Gtr 1
D|-------------------9--9--------------------9--9-------|
A|-7--7--------------------7--7-------------------------|
E|------------------------------------------------------|


e|------------------------------------------------------|
B|------------------------------------------------------|
G|------------------------------------------------------| Gtr 1
D|-------9--9--7--7--------------9--9--7--7-------------|
A|-------------------9--9--------------------9--9-------|
E|-7--7--------------------7--7-------------------------|
 |
e|-----------7------9-7---------------------------------|
B|---------7---10-7-----10-7----------------------------|
G|-------9-------------------9brp7---9-7----------------| Gtr 2
D|---------------------------------9-----9~~------------| 
A|------------------------------------------------------|
E|------------------------------------------------------|


e|------------------------------------------------------|
B|------------------------------------------------------|
G|-------11--11--9--9------------9--9--7--7-------------| Gtr 1
D|---------------------7---------------------9--9-------|
A|-9--9------------------8-7--7-------------------------|
E|------------------------------------------------------|


e|------------------------------------------------------|
B|------------------------------------------------------|
G|------------------------------------------------------| 
D|-------9--9--7--7--------------9--9--7--7-------------|
A|-------------------9--9--------------------9--9-------|
E|-7--7--------------------7--7-------------------------|



Guitar Solo:

e|------------------------------------------------------|
B|-7-----------------------------------7----------------|
G|-7-------------7-----------------7b----7brp4---7-6-4~-| Gtr 3
D|-----------7-9---9~----------7-9-------------7--------|
A|---------9-----------------9--------------------------|
E|------------------------------------------------------|


e|--------------7--------------------12b---10-12-10-----|
B|-7--------------7-10b-10b~~\--------------------------|
G|-7-------7-9b-----------------------------------------|
D|------------------------------------------------------|
A|------------------------------------------------------|
E|------------------------------------------------------|


e|------------------------------------------------------|
B|-12----10b~~-10b~----9^-7-9---7----10b--10b-10-7------|
G|----11----------------------9-------------------------|
D|------------------------------------------------------|
A|------------------------------------------------------|
E|------------------------------------------------------|


e|------------------------------------------------------|
B|-----------------------------------9-9^---------------|
G|-9brp7---9-7---------------------7-9-9^-----Gtr-2-----|
D|-------9-------9-7---7-7-7-7-7-9------------Starts----|
A|-------------------9----------------------------------|
E|------------------------------------------------------|


e|------------------------------------------------------|
B|-7---------------7--9-9^-9-7------7-------------------|
G|-7---------------7--9-9^-9-7------7-------------------| Gtr 2
D|------9-7---------------------9--------9-7------------|
A|----------9--------------------------------9----------|
E|------------------------------------------------------|


e|------------------------------------------------------|
B|-7--9-9^-9-7-----10--10--10--10--10--12--12--12--12---|
G|-7--9-9^-9-7--/11--11--11--11--11--11--11--11--11--11-|
D|------------------------------------------------------|
A|------------------------------------------------------|
E|------------------------------------------------------|


e|----10----------12brp10-12-10------------------10-----|
B|-12------12-10------------------12-10----10-12----12--|
G|--------------------------------------11--------------|
D|------------------------------------------------------|
A|------------------------------------------------------|
E|------------------------------------------------------|


e|-----7-9----------------------------------------------|
B|-9^------9^rp7---7----10b--10b-10-7---7---------------|
G|---------------9--------------------9---7-9---7-------|
D|--------------------------------------------9---9-----|
A|------------------------------------------------------|
E|------------------------------------------------------|


e|------------------------------------------------------|
B|------------------------------------------------------|
G|------------------------------------------------------|
D|-7-7-7-7-9--7-----------------------------------------|
A|--------------9p8p7-5-7-5-----------------------------|
E|--------------------------5-7~~-----------------------|



Bridge:

e|--------------------------------------------9\7~------|
B|-------------------10-----------------------9\7~------|
G|-------------------9brp7------------------9-----------| Gtr 2
D|---7---7-9---------------9----------------------------|
A|-9---9------------------------------------------------|
E|------------------------------------------------------|



Verse 3:

e|------------------------------------------------------|
B|-------9--9--7--7--------------9--9--7--7-------------|
G|-------9--9--7--7--------------9--9--7--7-------------| Gtr 1
D|-------------------9--9--------------------9--9-------|
A|-7--7--------------------7--7-------------------------|
E|------------------------------------------------------|


e|------------------------------------------------------|
B|------------------------------------------------------|
G|------------------------------------------------------| Gtr 1
D|-------9--9--7--7--------------9--9--7--7-------------|
A|-------------------9--9--------------------9--9-------|
E|-7--7--------------------7--7-------------------------|
 |
e|------------------------------------------------------|
B|------------------------------------------------------|
G|-----------7------------------------------------------| Gtr 2
D|---7---9------9-7-------------------------------------|
A|-9---9---9--------9-----------------------------------|
E|------------------------------------------------------|
  PM........


e|------------------------------------------------------|
B|-------11--11--9--9----------------9--9--7--7---------|
G|-------11--11--9--9----------------9--9--7--7---------| Gtr 1
D|---------------------11--11--------------------9--9---|
A|-9--9------------------------7--7---------------------|
E|------------------------------------------------------|


e|------------------------------------------------------|
B|------------------------------------------------------|
G|------------------------------------------------------| Gtr 1
D|-------9--9--7--7--------------9--9--7--7-------------|
A|-------------------9--9-------------------9--9--------|
E|-7--7--------------------7--7-------------------------|
 |
e|------------------------------7-----------------------|
B|-------10b-10b--10b-10-7----7---10-7---7--------------|
G|-------------------------9b----------9---9-7-9-7------| Gtr 2
D|-------------------------------------------------7-9~-|
A|------------------------------------------------------|
E|------------------------------------------------------|



Chorus:

e|------------------------------------------------------|
B|------------------------------------------------------|
G|------------------------------------------------------| Gtr 1
D|-------9--9--7--7--------------9--9--7--7-------------|
A|-------------------9--9--------------------9--9-------|
E|-7--7--------------------7--7-------------------------|
 |
 |                   P.H
e|------------------------------------------------------|
B|------------------------------------------------------|
G|-------------------7----------------------------------| Gtr 3
D|----------------------7--9----------------------------|
A|------------------------------------------------------|
E|------------------------------------------------------|


e|------------------------------------------------------|
B|------------------------------------------------------|
G|------------------------------------------------------| Gtr 1
D|-------9--9--7--7--------------9--9--7--7-------------|
A|-------------------9--9--------------------9--9-------|
E|-7--7--------------------7--7-------------------------|
 |
e|------------------------------------------------------|
B|------10----------------------------------------------|
G|------9brb-rp7-9-7------------------------------------| Gtr 3
D|--------------------9-7-------------------------------|
A|------------------------9-----------------------------|
E|------------------------------------------------------|


e|------------------------------------------------------|
B|------------------------------------------------------|
G|-------9--9--7--7--------------9--9--7--7-------------| Gtr 1
D|-------------------9--9--------------------9--9-------|
A|-7--7--------------------7--7-------------------------|
E|------------------------------------------------------|
 |
e|------------------------------------------------------|
B|-------------------7----------------------------------|
G|-------------------7----------------------------------| Gtr 3
D|---------------------7-9~-----------------------------|
A|------------------------------------------------------|
E|------------------------------------------------------|


e|------------------------------------------------------|
B|------------------------------------------------------|
G|------------------------------------------------------| Gtr 1
D|-------9--9--7--7--------------9--9--7--7-------------|
A|-------------------9--9--------------------9--9-------|
E|-7--7--------------------7--7-------------------------|
 |
e|------------------7----------------9^-----------------|
B|-------10-------7---10b~-10b~-10b~--------------------|
G|-------9brb--9b---------------------------------------| Gtr 3
D|------------------------------------------------------|
A|------------------------------------------------------|
E|------------------------------------------------------|


e|------------------------------------------------------|
B|------------------------------------------------------|
G|-------11--11--9--9----------------9--9--7--7---------| Gtr 1
D|---------------------11--11--------------------9--9---|
A|-9--9------------------------7--7---------------------|
E|------------------------------------------------------|
 |
e|------------------------------------------------------|
B|-----------------------------10-12~-------------------|
G|--------------------------11--------------------------| Gtr 3
D|------------------------------------------------------|
A|------------------------------------------------------|
E|------------------------------------------------------|


e|------------------------------------------------------|
B|------------------------------------------------------|
G|------------------------------------------------------| Gtr 1
D|-------9--9--7--7--------------9--9--7--7-------------|
A|-------------------9--9--------------------9--9-------|
E|-7--7--------------------7--7-------------------------|
 |
e|-----------------------------------7------------------|
B|---------------10----------------7---10-7-7-----------|
G|-------7-7-7-9----9brp7-9-7---9b-------------Solo-----| Gtr 3
D|---------------------------------------------Starts---|
A|------------------------------------------------------|
E|------------------------------------------------------|



Guitar solo # 2:

e|-/11-11~--------------------/11~-11~-11~-11~----------|
B|-/12-12~----9--7------------/12~-12~-12~-12~----------|
G|------------9--7--------------------------------------| Gtr 2
D|------------------9-7---------------------------------|
A|----------------------9-------------------------------|
E|------------------------------------------------------|


e|-10-12brp10-12-12b-10---------------------------------|
B|------------------------12----12-12~------12-14^brp12-|
G|---------------------------13----------13-------------|
D|------------------------------------------------------|
A|------------------------------------------------------|
E|------------------------------------------------------|


e|-------------------------12-14----12------------------|
B|----12-12-------12-15b---------15----14^rp12----15----|
G|-13----------13------------------------------13----13-|
D|------------------------------------------------------|
A|------------------------------------------------------|
E|------------------------------------------------------|


e|---------------------------14-14~---14b--14b-14-------|
B|-14----12----12-12~----14b----14b~--------------------|
G|----13----13------------------------------------------|
D|------------------------------------------------------|
A|------------------------------------------------------|
E|------------------------------------------------------|


e|-17b--17br-14-12-14-----------14---14-14-14-----------|
B|--------------------15-12-----14^r-12-14-12----12-----|
G|--------------------------------------------13--------|
D|------------------------------------------------------|
A|------------------------------------------------------|
E|------------------------------------------------------|


e|------------------------------------------------------|
B|----------12----10b~~---------------------------------|
G|----11-13-11------------------------------------------|
D|-13---------------------------------------------------|
A|------------------------------------------------------|
E|------------------------------------------------------|



Outro:

e|-7-----------7----------------------------------------|
B|---10-7----7---10-7-----------------------------------|
G|--------9b----------9brp7---9-7------------------7-9-7| Gtr 2
D|--------------------------9------9-7---------7-9------|
A|-------------------------------------9----/9----------|
E|------------------------------------------------------|


e|------------------------------------------------------|
B|------------------------------------------------------|
G|------------------------------------------------------|
D|-9-7--------------------------------------------------|
A|-----9-9-12-------------------------------------------|
E|------------12p10^--7~~-------------------------------|
Related for Face Down In The Blues tab