Song name
# A B C D E F G H I J K L M N O P Q R S T U V W X Y Z

Marta Sui Tubi - Post tab

Help us improve GuitareTab! Take a short survey!
Hi everyone!
This is the first tab I ever write...a great song by a great band...one of my favorites....
There are no other tabs from Marta Sui Tubi...so I decided to post this one!
Hope you like it!
Federica

Standard tuning: EADGBe


intro:

Em

|-------------------------------------|
|-------------------------------------|
|--------0----------0-----------------|
|-----2----2----2------2------2---2---|
|--2----2----2-----2--------2----2----|
|-------------------------------------|


C

|--------------------------------------|
|--------------------------------------|
|--------0-----------0-----------------|
|-----2----2-----2------2------2----2--|
|--3----3------3---3-------3----3------|
|--------------------------------------|


for the whole song.some parts use the chords:


Chords: Em / C
Related for Post tab