Guitaretab - guitar tabs
Song name
# A B C D E F G H I J K L M N O P Q R S T U V W X Y Z

Marta Sui Tubi - Lunica Cosa tab

Tuning: C G D G B e

intro e verso (tutte note da fare con tante plettrate)
---------------|-------------------------|----------|
---------------|-------------------------|----------|
---------------|-------------------------|----------|
---------------|-------------------------|----------|
-11-9-7-5--4-2-|----------11-9-7-5--4-2--|----------|
---------------|-2-6-7-2-----------------|----------|
[ Tab from: http://www.guitaretab.com/m/marta-sui-tubi/184001.html ]
ritornello
-----------------------------------|
-----------------------------------|
-----------------------------------|
-4-8-9-4--4-4/14--4-4/9------------|
-2-6-7-2--2-2/12--2-2/7------------|
-2-6-7-2--2-2/12--2-2/7------------|

"c' una guerra che si combatte..."
-----------------------------------|
-----------------------------------|
-----------------------------------|
----------0-0-0-0------------------|
---------/7-7-7-7------------------|
-2-0-2-0---------------------------|

bridge metal (o quasi...)
-------------------------|--------------------------|
-------------------------|--------------------------|
-------------------------|--------------------------|
-4-----------------------|-0-0--0-0--0-0--0-0---0---|
--------4-5-6-------5-6--|-5-5--5-5--4-4--4-4---7---|
--2-0-2-------4-5-6------|--------------------------|
Related for Lunica Cosa tab