Song name
# A B C D E F G H I J K L M N O P Q R S T U V W X Y Z

Marta Sui Tubi - Lequilibrista tab

Tablatura:"How To Play Marta Sui Tubi"
Album:"Muscoli & Dei"
Traccia:"L'equilibrilista"

Tuning:

1-[E]
2-[B]
3-[G]
4-[D]
5-[A]
6-[D]

Riff:"Parte 1"

1|-------------------------------------------------------------|
2|-------------------------------------------------------------|
3|-------------------------------------------------------------|
4|-------------------------------------------------------------|
5|---8--9--10--11--12-10-10-12-10-10-12-10-12-10-10-12-10-10---|
6|---6--7--8----9--10-10-10-10-10-10-10-10-10-10-10-10-10-10---|

Riff:"Parte 2"

1|----------------------------------------------------------|
2|----------------------------------------------------------|
3|-12---x---x--12---x---x--12---x--12---x---x--12---x---x---|
4|-12--10--10--12--10--10--12--10--12--10--10--12--10--10---|
5|-10--10--10--10--10--10--10--10--10--10--10--10--10--10---|
6|-10--10--10--10--10--10--10--10--10--10--10--10--10--10---|


Rit:

1|--------------------------------------|
2|--------------------------------------|
3|--------------------------------------|
4|---5--3--1--0--1--3--5--3--1--x-x-x---|
5|---5--3--1--0--1--3--5--3--1--x-x-x---|
6|---5--3--1--0--1--3--5--3--1--x-x-x---|


Bridge Finale:

1|----------------------------------------------------------------------------------|
2|----------------------------------------------------------------------------------|
3|----------------------------------------------------------------------------------|
4|---5--0h5--0h5--0h5--0--0--5--0h5--0h5--0h5--0--0--1--1--1--1--1--1--1--1--1--1---|
5|---5--0h5--0h5--0h5--0--0--5--0h5--0h5--0h5--0--0--1--1--1--1--1--1--1--1--1--1---|
6|---5--0h5--0h5--0h5--0--0--5--0h5--0h5--0h5--0--0--1--1--1--1--1--1--1--1--1--1---|


Stay Tuned!
Cheers!!!

Youtube: http://www.youtube.com/user/HTPmartasuitubi
Facebook: https://www.facebook.com/HTPmartasuitubi
Tap to rate this tab
 
# A B C D E F G H I J K L M N O P Q R S T U V W X Y Z