Song name
# A B C D E F G H I J K L M N O P Q R S T U V W X Y Z

Marta Sui Tubi - La Spesa tab

Tablatura:"How to Play Marta sui Tubi"
Album:"Sushi & Coca"
Traccia:"La Spesa"

Tuning:

1-[E]
2-[B]
3-[G]
4-[D]
5-[G]
6-[C]

Capo: 4° tasto


Riff principale:

1|-----------------------------------------------------------|
2|-----------------------------0-----------------------------|
3|-----------0-------------0-------------0-------------0-----|
4|-----0h2s4---4-----0h2s4---4-----0h2s4---4-----0h2s4---4---|
5|---0-----------0-0-------------0-----------0-0-------------|
6|-----------------------------------------------------------|

1|-------------------------------------------------------------|
2|------------------------------0--------------0---------------|
3|-----------0-------------0-------------0---------------------|
4|-----0h2s4---4-----0h2s4---4-----0h2s4---4-----5s4-4s2-2p0---|
5|-------------------------------------------------------------|
6|---0-----------0-0------------0------------0-----------------|

Riff 2:

1|---2--2--2--2--2--2--2s5-0---|
2|---0--0--0--0--0--0--0-0-0---|
3|---0--0--0--0--0--0--0-0-0---|
4|---4--4--4--4--4--4--4s7s2---|
5|---0--0--0--0--0--0--0-0-0---|
6|---x--x--x--x--x--x--x-x-x---|


Riff 3:

1|---0--0-----7--0--0-----7------|
2|---5--7-----0--5--7-----0------|
3|---0--0--0--0--0--0--0--0--0---|
4|---0--0--0--0--0--0--0--0--5---|
5|---5--7--9--7--5--7--9--7--0---|
6|---x--x--x--x--x--x--x--x--x---|


Riff 4:

1|-------------------------------|
2|-------------------------------|
3|-------------------------------|
4|--0--0--0--0--0--0--0--0---0---|
5|--4--2--7--4--5--9--7--10--9---|
6|--0--0--0--0--0--0--0--0---0---|


Bridge:

1|---------------------------------------------------------------------------|
2|------0----0-----------0-----0-----------0-----0-----------0-----0---------|
3|--------0----0---0-------0-----0---0-------0-----0---0-------0-----0---0---|
4|---4-----------4----5------------5----4------------4----5------------5-----|
5|---2----------------3-----------------2-----------------3------------------|
6|---2------2---------3------3----------2------2----------3------3-----------|

1|---------------------------------------------|
2|------0-----0--------------------------------|
3|--------0-----0---0-0------------------------|
4|---7------------7------4--4--4--0--0--0--0---|
5|---5-------------------2--2--2--2--4--5--7---|
6|---5------5------------2--2--2--0--0--0--0---|


Outro:

1|---7--0----------0------------|
2|---0--5----5s7---------0------|
3|---0--0-----------------------|
4|---7--5--------7---7s9---s7---|
5|---0--0--0--------------------|
6|---x--x-----------------------|


Stay Tuned!
Cheers!!!

Youtube: http://www.youtube.com/user/HTPmartasuitubi
Facebook: https://www.facebook.com/HTPmartasuitubi
Tap to rate this tab
# A B C D E F G H I J K L M N O P Q R S T U V W X Y Z