Song name
# A B C D E F G H I J K L M N O P Q R S T U V W X Y Z

Marta Sui Tubi - Non Lo Sanno tab

Tablatura:"How to Play Marta sui Tubi"
Album:"Sushi & Coca"
Traccia:"Non lo sanno"

Tuning:

1-[E]
2-[B]
3-[G]
4-[D]
5-[A]
6-[D]


Riff:

1|---------------------------------|
2|---------------------------------|
3|--------7--7-------7--7----------|
4|--------7--7-------7--7----------|
5|--------5--5-------5--5----7-5---|
6|---0-0--------0-0--------7-------|


Riff 2:

1|---------------------------------------------|
2|-----1---------1---------1-------------------|
3|-------0---0-----0---0-----0---0---5---------|
4|---------2---------2---------0-------3---3---|
5|---0---------0---------1---------------3-----|
6|---------------------------------3-----------|


Riff 3:

1|--------0------------------------|
2|--------0------------------------|
3|--------7------------------------|
4|--------7--7--7--7--6--6--6------|
5|--------5--x--x--x--x--x--x------|
6|---0-0-----7--7--7--6--6--6--0---|


Riff 4:

1|-------------------0------------------------|
2|-------------------0------------------------|
3|-------12----------12------12------12-------|
4|---10------10--10------10------10------10---|
5|---0-------0---0-------0-------0-------0----|
6|---x-------x---x-------x-------x-------x----|


Riff 4: Variazione 1

1|---------------------------------------|
2|---------------------------------------|
3|------12-2-9-5-4h5p4------12-2-9-7-7---|
4|---10----------------5-10--------------|
5|---------------------------------------|
6|---------------------------------------|


Riff 4: Variazione 2

1|--------------------------------|
2|--------------------------------|
3|---12--12--11--11--9--9--7--7---|
4|---0---0---0---0---0--0--0--0---|
5|--------------------------------|
6|--------------------------------|


Riff 5:

1|---------0--0--0--0---|
2|---------3--3--3--3---|
3|---------2--2--2--2---|
4|---------0--0--0--0---|
5|---------0--0--0--0---|
6|---12s2--0--0--0--0---|


Riff 4: Variazione 3

1|-------------------0-----------------------------|
2|-------------------0-----------------------------|
3|-------12----------12------12------12--x-x-x-x---|
4|---10------10--10------10------10------x-x-x-x---|
5|---0-------0---0-------0-------0-------x-x-x-x---|
6|---x-------x---x-------x-------x-------x-x-x-x---|


Outro:

1|------------------------------------------------------------------------|
2|------------------------------------------------------------------------|
3|-----12------0-----------11-----------14------0-------------0-----------|
4|--------10-----10---12------12---12------12-----12---10-9-----7---5-0---|
5|---0-------0------0----0-------0----0-------0------0------0-----0-------|
6|------------------------------------------------------------------------|


1|-------------------------------------------------------------------------------------0---|
2|-------------------------------------------------------------------------------------1---|
3|-----0-----2-----9-----5-----4h5p4---12-----0-----2-----9----5---------0-------------0---|
4|-------0-----0-----0-----0---------5----0-----0-----0-----0----0-----0------10----5--2---|
5|-------------------------------------------------------------------2-----s8----s3----0---|
6|---0-----0-----0-----0-----0--------------0-----0-----0-----0----0-------------------x---|


Stay Tuned!
Cheers!!!

Youtube: http://www.youtube.com/user/HTPmartasuitubi
Facebook: https://www.facebook.com/HTPmartasuitubi
Tap to rate this tab
# A B C D E F G H I J K L M N O P Q R S T U V W X Y Z