Song name
# A B C D E F G H I J K L M N O P Q R S T U V W X Y Z

Marta Sui Tubi - Dio Come Sta tab

Tablatura:"How to Play Marta sui Tubi"
Album:"Sushi & Coca"
Traccia:"Dio come sta?"

Tuning:

1-[E]
2-[B]
3-[G]
4-[D]
5-[G]
6-[C]


Riff principale:

1|-----------------------|
2|-----------------------|
3|-------2h3-----0-------|
4|-----0-----------------|
5|---0-------h5--0h2h3---|
6|-----------------------|


Riff: Variazione 1

1|-------------------------|
2|-------------------------|
3|-------7h8-----0---------|
4|-----0-------------------|
5|---0-------h10---0h7h8---|
6|-------------------------|


Rit:

1|--------------------------------------|
2|--------------------------------------|
3|------------9------------------7------|
4|---9--9--9--9--9---7--7--7--7--7--5---|
5|---7--7--7--7--0---5--5--5--5--0--3---|
6|---7--7--7--7--0---5--5--5--5--0--3---|


Riff 2:

1|--------------|
2|--------------|
3|--------------|
4|---7h9--3h5---|
5|---7----3-----|
6|---7----3-----|


Outro:

1|-------------------------|
2|-------------------------|
3|-------0-----0-----0-----|
4|---------0h5---0h3-------|
5|---0h3---------------5---|
6|-------------------------|


Outro: Variazione 1

1|-----------------------------------------------------|
2|-----------------------------------------------------|
3|-----0-0---------0-0---------0-0---------0-0---------|
4|-----------0-0---------0-0---------0-0---------0-0---|
5|---------5-----------5-----------7-----------7-------|
6|---3-----------3-----------5-----------5-------------|


Stay Tuned!
Cheers!!!

Youtube: http://www.youtube.com/user/HTPmartasuitubi
Facebook: https://www.facebook.com/HTPmartasuitubi
Tap to rate this tab
# A B C D E F G H I J K L M N O P Q R S T U V W X Y Z