Song name
# A B C D E F G H I J K L M N O P Q R S T U V W X Y Z

Marta Sui Tubi - Lauto Ritratto tab

Tablatura:"How to Play Marta sui Tubi"
Album:"Sushi & Coca"
Traccia:"Lauto Ritratto"

Tuning:

1-[D]
2-[F]
3-[C]
4-[F]
5-[A]
6-[E]


Riff principale:

1|---4p3------------4p3------------3p2------------3p2-------------|
2|-------3--------------3--------------2--------------2-----------|
3|----------------------------------------------------------------|
4|-----------3-3-3----------3-3-3----------2-2-2----------2-2-2---|
5|---3-----3--------3-----3--------2-----2--------2-----2---------|
6|----------------------------------------------------------------|


Riff: Variazione 1

1|---3---------2------------2-------2-----|
2|--------2---------2----3----3--2----2---|
3|----------------------------------------|
4|----------------------------------------|
5|---2--2---2--2--2---2--2-------2--------|
6|----------------------------------------|


Riff 2:

1|-------------------------------------|
2|-------------------------------------|
3|-----0-0-0---0-0-0---0-0-0---0-0-0---|
4|-------------------------------------|
5|---9-------8-------7-------6---------|
6|-------------------------------------|


Rit:

1|----------------------------------------------------------------------------|
2|----------------------------------------------------------------------------|
3|------0---0-----0---0----0---0--------------0-0-----0---0----0---0----------|
4|---0----0---2s4---4---s2---2---s5-4-2h4--0------2s4---4---s2---2--------0---|
5|---0-------------------------------------0---------------------------7--0---|
6|-------------------------------------------------------------------8--------|


Stay Tuned!
Cheers!!!

Youtube: http://www.youtube.com/user/HTPmartasuitubi
Facebook: https://www.facebook.com/HTPmartasuitubi
Tap to rate this tab
# A B C D E F G H I J K L M N O P Q R S T U V W X Y Z