Song name
# A B C D E F G H I J K L M N O P Q R S T U V W X Y Z

Marta Sui Tubi - L Unica Cosa tab

Tablatura:"How to Play Marta sui Tubi"
Album:"Sushi & Coca"
Traccia:"L'unica cosa"

Tuning:

1-[E]
2-[B]
3-[G]
4-[D]
5-[G]
6-[C]


Riff principale:

1|---------------------------------------------------------------------------|
2|---------------------------------------------------------------------------|
3|---------------------------------------------------------------------------|
4|---------------------------------------------------------------------------|
5|---11-11-11-11-11-11-11-11-9-9-9-9-9-9-9-9-7-7-7-7-7-7-7-7-7-5-5-5-5-4-2---|
6|---------------------------------------------------------------------------|

1|-------------------------------------|
2|-------------------------------------|
3|-------------------------------------|
4|-------------------------------------|
5|-------------------------------------|
6|---2-2-2-2-6-6-6-6-7-7-7-7-2-2-2-2---|

1|---------------------------------------------------------------------------|
2|---------------------------------------------------------------------------|
3|---------------------------------------------------------------------------|
4|---------------------------------------------------------------------------|
5|---11-11-11-11-11-11-11-11-9-9-9-9-9-9-9-9-7-7-7-7-7-7-7-7-7-5-5-5-5-4-2---|
6|---------------------------------------------------------------------------|


Riff 2:

1|-----------------------|
2|-----------------------|
3|-----------------------|
4|-------------0---0-----|
5|---------2s7---7---7---|
6|---2-0-2---------------|


Bridge:

1|-----------------------------|
2|-----------------------------|
3|-----------------------------|
4|---4-------------------------|
5|-----------4-5-6-------5-6---|
6|-----2-0-2-------4-5-6-------|


Rit:

1|-----------------------------|
2|-----------------------------|
3|-----------------------------|
4|---4--8--9--4--4--14--4--9---|
5|---2--6--7--2--2--12--2--7---|
6|---2--6--7--2--2--12--2--7---|


Finale:

1|----------------------------------|
2|----------------------------------|
3|---5--5--5--5--4--4--4--4--4--7---|
4|----------------------------------|
5|---5--5--5--5--4--4--4--4--4--7---|
6|----------------------------------|


Stay Tuned!
Cheers!!!

Youtube: http://www.youtube.com/user/HTPmartasuitubi
Facebook: https://www.facebook.com/HTPmartasuitubi
Tap to rate this tab
 
# A B C D E F G H I J K L M N O P Q R S T U V W X Y Z