Song name
# A B C D E F G H I J K L M N O P Q R S T U V W X Y Z

Marta Sui Tubi - Dominique Canzone Di Gelosia tab

Tablatura:"How to Play Marta sui Tubi"
Album:"Sushi & Coca"
Traccia:"Dominique (canzone di gelosia)"

Tuning:

1-[E]
2-[B]
3-[G]
4-[D]
5-[A]
6-[B]


Riff:

1|---------------------------------|
2|---7-5---------------------------|
3|---------------------------------|
4|---------------------------------|
5|-------6-----------6-------------|
6|---------4-0-4-0-x---4-0-4-0-x---|


Variazione 1:

1|-----------------------------|
2|-----------------------------|
3|-----------------------------|
4|-------7---7-------7---7-----|
5|-----------------------------|
6|---5s7---7---7-5s7---7---7---|


Riff 2:

1|----------------------|
2|----------------------|
3|----------------------|
4|----------------------|
5|---5--5--5--3--3--3---|
6|---3--3--3--1--1--1---|


Riff 3:

1|----------------------|
2|----------------------|
3|----------------------|
4|---5--4--3------------|
5|---x--x--x--2-2s5-----|
6|---5--4--3--------0---|


Riff 4:

1|-----------------|
2|-----------------|
3|-----------------|
4|-----------------|
5|---------0h3h5---|
6|---0h3h5---------|


Variazione 2:

1|--------------|
2|--------------|
3|--------b12---|
4|----------x---|
5|--------b12---|
6|---0-0--------|


Pre rit:

1|----------------------------|
2|----------------------------|
3|----------------------------|
4|---8--8--7--7--5--5--5--5---|
5|---x--x--x--x--x--x--x--x---|
6|---8--8--7--7--5--5--5--5---|

1|-----------------------------------------------|
2|-----------------------------------------------|
3|-----------------------------------------------|
4|-------7--7--5--4--4--4--4--x--4--x--4--x--4---|
5|----------x--x--2--2--2--2--x--2--x--2--x--2---|
6|---5s7----7--5---------------------------------|


Rit:

1|---------------------------------------------------------------------------------|
2|---------------------------------------------------------------------------------|
3|---9--9--9--9--9--9--9--9--9--9--9--9--9--9--9--9--9--9--9--9--9--9--9--9--9--9--|
4|---9--9--9--9--9--9--9--9--9--9--9--9--9--9--9--9--9--9--9--9--9--9--9--9--9--9--|
5|---7--7--7--7--7--7--7--7--7--7--7--7--7--7--7--7--7--7--7--7--7--7--7--7--7--7--|
6|---------------------------------------------------------------------------------|

1|-------------------------------------------------------------------------------------|
2|-------------------------------------7-----7---------9-----9-------10------10--------|
3|---5--5--5--5--5--5--5--5--5--5--------7-----7---------9-----9--------10------10-----|
4|---5--5--5--5--5--5--3--3--3--3------------------------------------------------------|
5|---3--3--3--3--3--3--3--3--3--3--3s5-----5-----5-5s7-----7-----7-8-------8-------8---|
6|-------------------------------------------------------------------------------------|

1|-------------------------------------------|
2|-------------------------------------------|
3|---12--12--12--12--12--12--12--12--12--4---|
4|---12--12--12--12--12--12--12--12--12--4---|
5|---10--10--10--10--10--10--10--10--10--2---|
6|-------------------------------------------|


Bridge 3:

1|---------------------------------------------------------------------------------------|
2|---h12--------------h12----------------------------------------------------------------|
3|--------------------------------1s12-b12-----------------------------------------------|
4|---------------------------------------------------------------------------------------|
5|---------------------------------------------------------------------------------------|
6|-------0-0-0-0-1s12-----0-0-0-0----------0-0-0-0-4-5-v4-0-0-0-0-1s12-12s1-0-0-0-4-v5---|

1|---------------------------------------------------|
2|----------------h12--------------------------------|
3|---------------------------------------------------|
4|-----------------------------x--x--x--x------------|
5|-----------------------------x--x--x--x------------|
6|---0-0-0-0-1s12-----0-0-0-0--x--x--x--x--0-0-0-0---|


Stay Tuned!
Cheers!!!

Youtube: http://www.youtube.com/user/HTPmartasuitubi
Facebook: https://www.facebook.com/HTPmartasuitubi
Tap to rate this tab
 
# A B C D E F G H I J K L M N O P Q R S T U V W X Y Z