Song name
# A B C D E F G H I J K L M N O P Q R S T U V W X Y Z

Marta Sui Tubi - L Aria Intorno tab

Tablatura:"How to Play Marta sui Tubi"
Album:"Sushi & Coca"
Traccia:"L'aria intorno"

Tuning:

1-[E]
2-[A]
3-[F]
4-[C]
5-[F]
6-[D]


Riff:

1|---------------a12-----------------------|
2|------------a12--------------------a12---|
3|---------a12-------------------a12-------|
4|------a12------------------a12-----------|
5|---a12-----------------a12---------------|
6|-------------------a12-------------------|


Variazione 1:

1|--------------------------|
2|--------------------------|
3|---a7---------------------|
4|------a9-a7---------------|
5|------------a9-a7-a9------|
6|---------------------a7---|


Riff 2:

1|-----------0-------------|
2|---------0-----------0---|
3|-------0-----------0-----|
4|-----0-----------2-------|
5|---0-----------4---------|
6|-------------0-----------|


Variazione 2:

1|-----------------|
2|-----------------|
3|---a7------------|
4|------a9-a7------|
5|------------a9---|
6|-----------------|


Riff 3:

1|---------------------------------------------------|
2|---------------------0-------------0-------10s12---|
3|----------0--------0---0---------0-------0---------|
4|-------11---11---4-------------7-------0-----------|
5|-----9---------2---------2-2s5-------7-------------|
6|---0-----------------------------------------------|


Rit:

1|-----------------------------------------------|
2|-----0---------0-----------0---------0---------|
3|-------0-0-0-----0-0-0-------0-0-0-----0-0-0---|
4|-----------------------------------------------|
5|---2---------2---------2s4---------4-----------|
6|-----------------------------------------------|

1|---------------------------------------------------------------------|
2|-------0---------0-----------0---------0---------0---------0---------|
3|---------0-0-0-----0-0-0-------0-0-0-----0-0-0-----0-0-0-----0-0-0---|
4|---------------------------------------------------------------------|
5|---4s5---------5---------5s9---------9---------8---------8-----------|
6|---------------------------------------------------------------------|


Riff 4:

1|---------------a5------------------|
2|------------a5----------------a5---|
3|---------a5----------------a5------|
4|------a5----------------a5---------|
5|---a5----------------a5------------|
6|------------------a5---------------|


Bridge:

1|---0---------0---------0---------0-------0-------|
2|---0---------0---------0---------0---------0-----|
3|---11--x--x--11--x--x--11--x--x--11----0-----0---|
4|---9---x--x--9---x--x--9---x--x--9---------------|
5|---0---x--x--0---x--x--0---x--x--0---4-----------|
6|-------x--x------x--x------x--x------------------|


Stay Tuned!
Cheers!!!

Youtube: http://www.youtube.com/user/HTPmartasuitubi
Facebook: https://www.facebook.com/HTPmartasuitubi
Tap to rate this tab
 
# A B C D E F G H I J K L M N O P Q R S T U V W X Y Z