Song name
# A B C D E F G H I J K L M N O P Q R S T U V W X Y Z

Marta Sui Tubi - Licantropo tab

Tablatura:"How to Play Marta sui Tubi"
Album:"Sushi & Coca"
Traccia:"Licantropo"

Tuning:

1-[E]
2-[B]
3-[G]
4-[D]
5-[A]
6-[E]


Riff principale:

1|-----------------------------------------------------------|
2|-----------------------------------------------------------|
3|---------------------------------------------9-8h9p8-8-----|
4|---------------9-8-------9-8---------------9-----------9---|
5|---------0h7h9-----9---9-----9-----5---5s7-----------------|
6|---0h7h9-------------7---------7s5---0---------------------|


Riff:"Soprattutto se il gatto io non ce l'ho.."

1|-------------------------------------------------------7-------|
2|---------------------------------------------------7-------8---|
3|---------------------------------------------9-8---------9-----|
4|---------------9-8-------9-8---------------9-----9---8---------|
5|---------0h7h9-----9---9-----9-----5---5s7---------------------|
6|---0h7h9-------------7---------7s5---0-------------------------|


Pre Rit:"Ma ho la certezza.."

1|---------------------------------------|
2|-----0---0---0---0-----0---0---0---0---|
3|---------------------------------------|
4|---9---9---5---5---5s9---9---5---5-----|
5|---------------------------------------|
6|---------------------------------------|


Rit:"E parlo male.."

1|---0--0--0--0--0--0--0--0--0--0---|
2|---0--0--0--0--0--0--0--0--0--0---|
3|---8--8--8--8--8--4--4--4--4--4---|
4|---9--9--9--9--9--5--5--5--5--5---|
5|---9--9--9--9--9--5--5--5--5--5---|
6|---7--7--7--7--7--3--3--3--3--3---|


(min 2.42):

1|--------------------------------|
2|--------------------------------|
3|--------------------------------|
4|--------------------------------|
5|--------------------------------|
6|---12-11-10-9-8-7-6-5-4-3-2-1---|

P.S: In questo punto della traccia viene effettuato uno slide dal tasto "12" al tasto "1".
     Le plettrate sono molto veloci; ascoltate la traccia per il tempo.


Finale:(3.09)

1|---------7-------|
2|-----7-------8---|
3|-----------9-----|
4|---9---8---------|
5|-----------------|
6|-----------------|


Stay Tuned!
Cheers!!!

Youtube: http://www.youtube.com/user/HTPmartasuitubi
Facebook: https://www.facebook.com/HTPmartasuitubi
Tap to rate this tab
# A B C D E F G H I J K L M N O P Q R S T U V W X Y Z