Song name
# A B C D E F G H I J K L M N O P Q R S T U V W X Y Z

Marta Sui Tubi - Sushi Coca tab

Tablatura:"How to Play Marta sui Tubi"
Album:"Sushi & Coca"
Traccia:"Sushi & Coca"

Tuning:

1-[F]
2-[C]
3-[F]
4-[C]
5-[F]
6-[C]


Riff principale:

1|-------------------|
2|-------------------|
3|--------0----------|
4|-----h8--------0---|
5|---0--------h3-----|
6|----------0--------|


Variazione:

1|--------------------------------------------------|
2|--------------------------------------------------|
3|---10----------10----------9----------8-----------|
4|---------12----------12---------11---------10-----|
5|---0---0----0--0---0----0--0--0----0--0--0----0---|
6|--------------------------------------------------|


Rit:

1|-------0---------------------------------0----0---|
2|---0h7-------0-----0-------------0-----0----------|
3|---------0h7---0h9-------0---0h7---7s9-----11-----|
4|---------------------0h7--------------------------|
5|--------------------------------------------------|
6|--------------------------------------------------|

1|---0---|
2|---0---|
3|---0---|
4|---0---|
5|---0---|
6|-------|


Bridge: (3:03)

1|---------|
2|---------|
3|---------|
4|---------|
5|---0-----|
6|-----0---|


Variazione 2: (4:21)

1|-----0---------0---------|
2|---------0---------0-----|
3|-------------------------|
4|---0---0-----0---0-------|
5|-----------0-------------|
6|---------------------0---|


Finale:

1|--------------------|
2|--------------------|
3|---0---0---0---0----|
4|---12--12--12--12---|
5|---0---0---0---0----|
6|--------------------|

1|-------------------|
2|-------------------|
3|---0---0---0---0---|
4|---12--11--10--9---|
5|---0---0---0---0---|
6|-------------------|

1|---0--0--0--0--0---|
2|---0--0--0--0--0---|
3|---0--0--0--0--0---|
4|---0--0--0--0--0---|
5|---0--0--0--0--0---|
6|-------------------|


Stay Tuned!
Cheers!!!

Youtube: http://www.youtube.com/user/HTPmartasuitubi
Facebook: https://www.facebook.com/HTPmartasuitubi
Tap to rate this tab
# A B C D E F G H I J K L M N O P Q R S T U V W X Y Z