Song name
# A B C D E F G H I J K L M N O P Q R S T U V W X Y Z

Marta Sui Tubi - Pensieri A Sonagli tab

Tablatura:"How to Play Marta sui Tubi"
Album:"Sushi & Coca"
Traccia:"Pensieri a sonagli"

Tuning:

1-[E]
2-[B]
3-[G]
4-[D]
5-[A]
6-[E]


Intro:..


Riff principale:

1|------------------------------------------------------|
2|------------------------------------------------------|
3|-----------4---------------5---------------4------5---|
4|-------7---------------7---------------7----------7---|
5|-----4---4---4-------5---5---5-------4---4---4----5---|
6|---4-----------4-4-5-----------5-5-4-----------4--5---|


Rit:

1|---0--0--0--0--0--0--0--------0--0--0--0--0--0--0--------0--0--0--0--0--0--0---|
2|---0--0--0--0--0--0--0--------0--0--0--0--0--0--0--------0--0--0--0--0--0--0---|
3|---1--1--1--1--1--1--1--2--2--2--2--2--2--2--2--2--------1--1--1--1--1--1--1---|
4|---2--2--2--2--2--2--2--2--2--2--2--2--2--2--2--2--2--2--2--2--2--2--2--2--2---|
5|---2--2--2--2--2--2--2--0--0--0--0--0--0--0--0--0--2--2--2--2--2--2--2--2--2---|
6|---0--0--0--0--0--0--0-----------------------------0--0--0--0--0--0--0--0--0---|


Variazione 1: (min.02:02)

1|--------0--0--0--0--0--0--0--0--0--0--0--0--0--0--0--0--0--0--0--0---|
2|--------0--0--0--0--0--0--0--0--0--0--0--0--0--0--0--0--0--0--0--0---|
3|--2--2--2--2--2--2--2--2--2--2--2--2--2--2--2--2--2--2--2--2--2--2---|
4|--2--2--2--2--2--2--2--2--2--3--3--3--3--3--3--3--3--3--3--3--3--3---|
5|--0--0--0--0--0--0--0--0--0--3--3--3--3--3--3--3--3--3--3--3--3--3---|
6|-----------------------------1--1--1--1--1--1--1--1--1--1--1--1--1---|


Finale: (min. 02:45)

1|---0--0--0--0---|
2|---0--0--0--0---|
3|---1--2--2--1---|
4|---2--2--2--2---|
5|---2--0--0--2---|
6|---0--------0---|


Stay Tuned!
Cheers!!!

Youtube: http://www.youtube.com/user/HTPmartasuitubi
Facebook: https://www.facebook.com/HTPmartasuitubi
Tap to rate this tab
# A B C D E F G H I J K L M N O P Q R S T U V W X Y Z