Song name
# A B C D E F G H I J K L M N O P Q R S T U V W X Y Z

Martha Wainwright - Factory tab

Kisschasy - Factory 

Standard Tuning

Tabbed by Will Vega

Rythm Guitar

Intro
e|----------------------------|
B|----------------------------|
G|-44xxxx444xxxx--------999999|
D|-44xxxx444xxxx-666666-999999| X2
A|-22xxxx222xxxx-666666-777777|
E|---------------444444-------|

Verse
e|----------------------------|
B|----------------------------|
G|-44xxxx444xxxx--------999999|
D|-44xxxx444xxxx-666666-999999|X4 
A|-22xxxx222xxxx-666666-777777|
E|---------------444444-------|

Chorus
e|----------------------------|
B|----------------------------|
G|-4444444444444--------999999|
D|-4444444444444-666666-999999| X4
A|-2222222222222-666666-777777|
E|---------------444444-------|

pre verse
e|----------------------------|
B|----------------------------|
G|-44xxxx444xxxx--------999999|
D|-44xxxx444xxxx-666666-999999|X2 
A|-22xxxx222xxxx-666666-777777|
E|---------------444444-------|

Verse
e|----------------------------|
B|----------------------------|
G|-44xxxx444xxxx--------999999|
D|-44xxxx444xxxx-666666-999999|X4 
A|-22xxxx222xxxx-666666-777777|
E|---------------444444-------|


Chorus
e|----------------------------|
B|----------------------------|
G|-4444444444444--------999999|
D|-4444444444444-666666-999999| X4
A|-2222222222222-666666-777777|
E|---------------444444-------|


Bridge
e|----------------------------|
B|----------------------------|
G|-4---44----9999-------------|
D|-4---44-66-9999-------------| X4
A|-2---22-66-7777-------------|
E|--------44------------------|

pre chorus
e|----------------------------|
B|----------------------------|
G|-44xxxx444xxxx--------999999|
D|-44xxxx444xxxx-666666-999999|X2
A|-22xxxx222xxxx-666666-777777|
E|---------------444444-------|


Chorus
e|----------------------------|
B|----------------------------|
G|-4444444444444--------999999|
D|-4444444444444-666666-999999| X4
A|-2222222222222-666666-777777|
E|---------------444444-------|

end on
e|----------------------------|
B|----------------------------|
G|-4--------------------------|
D|-4--------------------------| 
A|-2--------------------------|
E|----------------------------|

This tab isnt proberly completly correct but its a start.

will vega
Tap to rate this tab
 
# A B C D E F G H I J K L M N O P Q R S T U V W X Y Z