Song name
# A B C D E F G H I J K L M N O P Q R S T U V W X Y Z

Martika - Toy Soldiers tab

Make sure to transpose the solo half a step up if you're playing the Dm version, 
this is for the normal version which is in C#m

Here's the solo, I haven't seen any tabs of it anywhere around:
             
e|--------------------------------------------------------------------------|
B|--------------------------------------12-----------------------7s12-16-19-|
G|-------------4s8-9-11-11b13~--b13-b13----11~-----9-11-9s8-----------------|
D|-----------------------------------------------9----------9~-9~-----------|
A|--------------------------------------------------------------------------|
E|--------------------------------------------------------------------------|

e|---------------------------------12-12h14-12-11---------------------------|
B|-19b21~--21b24~---24r21-19~----12----------------12~-12~--12~-------------|
G|--------------------------------------------------------------------------|
D|--------------------------------------------------------------------------|
A|--------------------------------------------------------------------------|
E|--------------------------------------------------------------------------|

You should listen to the song to understand the rhythm of the tab
Please rate and comment if you think there are any mistakes
Cheers :)
Tap to rate this tab
# A B C D E F G H I J K L M N O P Q R S T U V W X Y Z