Song name
# A B C D E F G H I J K L M N O P Q R S T U V W X Y Z

Martin Garrix - Keygen tab

                      Keygen - Martin Garrix

(0 :45)
|-----------------------------------------------------------|
|--17-17-20-18-17-13-6-8-6-5-6-8-5--------------------------|
|-----------------------------------------------------------|
|-----------------------------------------------------------|
|-----------------------------------------------------------|
|-----------------------------------------------------------|


Hahaha! (1 :49) (It sounds good to me but I'm not sure for this part)
|-----------------------------------------------------------|
|-----------------------------------------------------------|
|-----------------------------------------------------------|
|-----------------------------------------------------------|
|--17-20-18-22-20-18-20-22-18-15-13-------------------------|
|-----------------------------------------------------------|

|-----------------------------------------------------------|
|-----------------------------------------------------------|
|-----------------------------------------------------------|
|------------------------20-18-17-18-17---------------------|
|--17-20-18-22-20-18-20------------------15-----------------|
|-----------------------------------------------------------|

|-----------------------------------------------------------|
|-----------------------------------------------------------|
|-----------------------------------------------------------|
|-----------------------------------------------------------|
|--17-20-18-22-20-18-20-22-18-15-13-------------------------|
|-----------------------------------------------------------|

|-----------------------------------------------------------|
|-----------------------------------------------------------|
|-----------------------------------------------------------|
|-----------------------20-18-17-18-17-20-22----------------|
|--17-20-18-22-20-18-20-------------------------------------|
|-----------------------------------------------------------|

Tab by Lisa Vkh
If there's some mistakes or if you have any questions: lisa.vkh@hotmail.com
Tap to rate this tab
# A B C D E F G H I J K L M N O P Q R S T U V W X Y Z