Song name
# A B C D E F G H I J K L M N O P Q R S T U V W X Y Z

Martin Jondo - Jah Gringo tab

e|--x-x------x-x--------------x-x-----x-x--------------x-x-----x-x--------------x-x-|
B|--x-x------x-x--------------x-x-----x-x--------------x-x-----x-x--------------x-x-|
G|--x-x------x-x------------3-x-x-3-3-x-x------------3-x-x-5-5-x-x------------3-x-x-|
D|--x-x-5--5-x-x--5-5-x-3h5---x-x-3-3-x-x--5-5-x-3h5---x-x-5-5-x-x--5-5-x-3h5---x-x-|
A|--x-x-5--5-x-x--------------x-x-1-1-x-x--------------x-x-3-3-x-x--------------x-x-|
E|--x-x-3--3-x-x--------------x-x-----x-x--------------x-x-----x-x--------------x-x-|

e|-----x-x-----------------------------|
B|-----x-x----3------------------------|
G|-7-7-x-x-----------------3-----------|
D|-7-7-x-x---------------3----5--------|
A|-5-5-x-x---------3h5-----------------|
E|-----x-x-----------------------------|

e|--x-x------x-x--------------x-x-----x-x--------------x-x-----x-x--------------x-x-|
B|--x-x------x-x--------------x-x-----x-x--------------x-x-----x-x--------------x-x-|
G|--x-x------x-x------------3-x-x-3-3-x-x------------3-x-x-5-5-x-x------------3-x-x-|
D|--x-x-5--5-x-x--5-5-x-3h5---x-x-3-3-x-x--5-5-x-3h5---x-x-5-5-x-x--5-5-x-3h5---x-x-|
A|--x-x-5--5-x-x--------------x-x-1-1-x-x--------------x-x-3-3-x-x--------------x-x-|
E|--x-x-3--3-x-x--------------x-x-----x-x--------------x-x-----x-x--------------x-x-|

e|------x-x--------------|
B|------x-x--------------|
G|--7-7-x-x--5^^^^^5--3--|
D|--7-7-x-x--5^^^^^5--3--|
A|--5-5-x-x--------------|
E|------x-x--------------|
Tap to rate this tab
 
# A B C D E F G H I J K L M N O P Q R S T U V W X Y Z