Song name
# A B C D E F G H I J K L M N O P Q R S T U V W X Y Z

Martin Jondo - Pure tab

Jondo - Chords & Tabs
...

LITTLE CLOSER
Album: Pure (2009), Track 1

Intro

G - D am ende gezupft (s.u.) - Am - C am ende gezupft (s.u.)

Tab D:
-2h3p0------------------------|
---------3-1------------------|
---------------2--0-----------|(0)
------------------------------|
------------------------------|
------------------------------|


Tab C:
-------------------------3-----5---|
--1-----3-----5----3-----------5---|
----0-----0-----0----0-----(0)-----|
------2-----2----------------------|
-3----------------0----0---(0)-----|
-----------------------------------|

Strophe & Refrain:

G - D - Am - C (/D)

___________________________________

GOOD GIRL
Album: Pure (2009), Track 2

Intro:

Bm - Em - G - A

Strophe:

Bm - Em - G - A

G - A - Bm

D - A - Bm

Refrain:

G - A - D / A / Bm

Bm - G - F#m

___________________________________

TEN MILLION MILES
Album: Pure (2009), Track 3

Intro:

Em Bm
---------------------------------------|
---------0-----------------3-----------|
-----0-------0---------4-------4-------|
---2---2---2---2-----4---4---4---4-----|
-------------------2-------------------|
-0-------------------------------------|
x 2

C G F#m
---------------------------------------|
---------1-----------------------------|
-----0-------0---------0-------0-------|
---2---2---2---2-----0-------0---------|
-3-------------------------------------|
-------------------3-----3-2-----2-----|

C D*
---------------------------------------|
---------1-----------------3-----------|
-----0-------0---------0-------0-------|
---2---2---2---2-----4---4---4---4-----|
-3-----------------5-------------------|
---------------------------------------|
x 2
Em
---------0-----------------0-----------|
---------0-----------------0-----------|
-----0-------0---------0-------0-------|
---2---2---2---2-----2---2---2---2-----|
-2-----------------2-------------------|
---------------------------------------|

1. Strophe = Intro

2. Strophe:

Em - Bm - C - G - D

Bridge:

C - D* - Em

C - D* - G - Em
C - D*

Refrain:

Em C* G*
------------------------------------------------------------|
--------0-------------0-------------0-----------------------|
------0---0---------0---0---------0---0-------0---0---------|
----2-------2-----2-------2-----0-------0----0---0----------|
--------------0-3-----------(3)-----------------------------|
-0-----------------------------3----------3-2---3----2-3----|

Em C* G*
------------------------------------------------------------|
--------0-------------1-------------0-----------------------|
------0---0---------0---0---------0---0-------0---0---------|
----2-------2-----2-------2-----0-------0----0---0----------|
--------------0-3-----------(3)-----------------------------|
-0-----------------------------3----------3-2---3----2-3----|

___________________________________

JAH CHILDREN
Album: Pure (2009), Track 4

Intro:

Em* - C - G - D

Em* =
--3--
-----
-----
--2--
--2--
-----

Strophe:

Em - C - Am - C

Bridge:

D - Em - C - D

Refrain:

Em - G - D
-0-2-3------ E-Seite

Em - C - G - D

_____________________________________

TEARDROPS
Album: Pure (2009), Track 5

Intro:

-0-----0------1-1--0-0----3-3--0-0---0------0h1p0--0-0---|
----3----3----1-1--3--3---5-5--3--3---3----0-------3--3--|
-----------0--2-2--0---0--5-5--0---0---0--2--------0---0-|
--------------3-3--0------5-5--0---------3---------0-----| x 2
-3--2--------------2------3-3--2-------------------2-----|
-------------------3-----------3----3--------------3-----|

1. Strophe:

Am - G - F - G

Refrain:

C - G - F - G

2. Strophe:

Am - G - F - G

_______________________________________


WHERE AM I
Album: Pure (2009), Track 6

Intro:

E - C

Strophe:

E - Em

Bridge:

A - G - E

Refrain:

E - D - C

___________________________________

CORRUPTED MINDS
Album: Pure (2009), Track 7

--------------0---------------0-----|
--3--3-3--3--3-3---3---3-3p1-1-1----|
-2-2--2--2--2---0h2-2-2-2---0-------| x 2
-0--0---2--3------------------------|
----------------1----1---3----------|
------------------------------------|


---------0----0--0------------0-----9------0-------|
--3-----6----5--3-3---3-----10-(0)--9----12*--(0)--|
-2-2-2/5--5-4--2---2-2-2-2/9------9---12*----------|
-0-------------------0-----------------------------|
---------------------------------------------------|
---------------------------------------------------|


--0-----0----0---0--0-----------------------|
--3-----3----3--3---3---------3-3h5-5p0-----|
--2---2-----0--0----0--------2-2---4--------| x 4
-0-0----------------------2-0---------------|
-----3---3-2--1----3-3-0h2------------------|
--------------------------------------------|


Chords:
C - Dm - Am - Dm
C - Dm - Am - Dm
Am - Dm - Am - Dm - Am


--------0-6----3---1---0----0---0--------- 0----0------------|
-3h10-10---8----5-3-3--3----3---3--als----- 3----3-----------|
-2h9-----7--7-5---2--2-2---2----2--Akkord--2---2-----(D7)----|
------------------------------0-0--gespielt---------0--------| x2
----------------------1-0-3--3--0--(D7)----1-0-3--3----------|
-------------------------------------------------------------|


Chords:
C - Dm - Am - Dm
C - Dm - Am - Dm
Am - Dm - Am - Dm - Am


--------0-6----3---1---0----0---0--------- 0----0------------|
-3h10-10---8----5-3-3--3----3---3--als----- 3----3-----------|
-2h9-----7--7-5---2--2-2---2----2--Akkord--2---2-----(D7)----|
------------------------------0-0--gespielt---------0--------| x2
----------------------1-0-3--3--0--(D7)----1-0-3--3----------|
-------------------------------------------------------------|


--0-----0----0---0--0-----------|
--3-----3----3--3---3-----------|
--2---2-----0--0----0-----------|
-0-0----------------------2-0---|
-----3---3-2--1----3-3-0h2------|
--------------------------------|


Chords: Dm - C - Bb - C (x8)

___________________________________

STRANGER IN THIS LAND
Album: Pure (2009), Track 8

Intro:

Am - F - G

Am - Dm gezupft (s.u.) - G

Tab Dm:
-------0h1---|
-----3-----3-|
---2---------|
-0-----------|
-------------|
-------------|

Strophe = Intro

Bridge:

Am - F - Dm - G

Refrain & Schlussteil

Am - F - C - G

___________________________________

REASONS
Album: Pure (2009), Track 9

Strophe:

Am - G

Bridge:

Am - G - C - G

Refrain:

Am -G - F - G

___________________________________


SOMETIMES
Album: Pure (2009), Track 10

Intro:
------0------0-------------|
------0--0h3---3-0---------|
---0---------------2-0-----| x 3
------------------------0--|
---------------------------|
-0-------------------------|

-----12------0-------------|
-----12--0h3---3-0---------|
---0---------------2-0-----| x 1
------------------------0--|
---------------------------|
-0-------------------------|

Strophe:

Em - D - C

Bridge:

Em - Bm - C - D

___________________________________
Tap to rate this tab
 
# A B C D E F G H I J K L M N O P Q R S T U V W X Y Z