Song name
# A B C D E F G H I J K L M N O P Q R S T U V W X Y Z

Martin Jondo - You Acoustic tab

Capo on the 1st fret

F |---------------------------------------|
B#|-----3----------2-2------0--------2-2--|
G#|-------4--------2-2--------2------2-2--|
D#|---4-----4------2-2----2-----1----4-4--|
A#|-2---------2-0--------------------4-4--|
F |---------------------0---------2-------|


F |----------------------------------2-2-2-|
B#|-----3----------2-2------0--------2-2-2-|
G#|-------4--------2-2--------2------2-2-2-|
D#|---4-----4------2-2----2-----1----4-4-4-|
A#|-2---------2-0--------------------4-4-4-|
F |---------------------0---------2--2-2-2-|

Main chords: Cm-A#-(F-Gm)
Tap to rate this tab
# A B C D E F G H I J K L M N O P Q R S T U V W X Y Z