Song name
# A B C D E F G H I J K L M N O P Q R S T U V W X Y Z

Martin Jondo - Jah Gringo tab

-------------------------------------------------------------------------------
			     Jah Gringo - Martin Jondo
-------------------------------------------------------------------------------
official website: http://www.martinjondo.com/
Tabbed by: saftcheck
Email: saftcheck_@arcor.de

This tab was very quickly done, i think it's not 100% correct but it sounds ok and it's 
play - please send some corrections! have fun

Tuning:standart


Intro:

e|------------------------------------------------------------------|
B|------------------------------------------------------------------|
G|----------------------3---3-3------------3---5-5------------3-----|
D|------5--5--5-5-x-3h5-----3-3--5-5-x-3h5-----5-5--5-5-x-3h5-------|
A|------5--5----------------1-1----------------3-3------------------|
E|--x-x-3--3--------------------------------------------------------|

e|----------------------------------------------------------|
B|--------3-------------------------------------------------|
G|-7-7-----------------3------------------------------------|
D|-7-7---------------3----5---------------------------------|
A|-5-5---------3h5------------------------------------------|
E|----------------------------------------------------------|

e|------------------------------------------------------------------|
B|------------------------------------------------------------------|
G|----------------------3---3-3------------3---5-5------------3-----|
D|------5--5--5-5-x-3h5-----3-3--5-5-x-3h5-----5-5--5-5-x-3h5-------|
A|------5--5----------------1-1----------------3-3------------------|
E|--x-x-3--3--------------------------------------------------------|

e|-----------------------------------------------|
B|-----------------------------------------------|
G|--7-7---5^^^^^5--3-----------------------------|
D|--7-7---5^^^^^5--3-----------------------------|
A|--5-5------------------------------------------|
E|-----------------------------------------------|


Hole Song: Gm Bb C dm  (powerchords i think, especially "C")

Outro:

e|------------------------------------------------------------------|
B|------------------------------------------------------------------|
G|----------------------3---3-3------------3---5-5------------3-----|
D|------5--5--5-5-x-3h5-----3-3--5-5-x-3h5-----5-5--5-5-x-3h5-------|
A|------5--5----------------1-1----------------3-3------------------|
E|--x-x-3--3--------------------------------------------------------|

e|----------------------------------------------------------|
B|--------3-------------------------------------------------|
G|-7-7-----------------3------------------------------------|
D|-7-7---------------3----5---------------------------------|
A|-5-5---------3h5------------------------------------------|
E|----------------------------------------------------------|

e|------------------------------------------------------------------|
B|------------------------------------------------------------------|
G|----------------------3---3-3------------3---5-5------------3-----|
D|------5--5--5-5-x-3h5-----3-3--5-5-x-3h5-----5-5--5-5-x-3h5-------|
A|------5--5----------------1-1----------------3-3------------------|
E|--x-x-3--3--------------------------------------------------------|

e|---------------------------------------3---------------|
B|---------------------------------------3---------------|
G|-7-7---5^^5-5---5^--5-5--3^-^3--3------3---------------|
D|-7-7---5^^5-5---5^--5-5--5------3~~----5---------------|
A|-5-5-----------------------------------5---------------|
E|---------------------------------------3---------------|
Tap to rate this tab
# A B C D E F G H I J K L M N O P Q R S T U V W X Y Z