Guitaretab - guitar tabs
Song name
# A B C D E F G H I J K L M N O P Q R S T U V W X Y Z

Martin Kristensen - Ole Sangen tab

Jeg har kopieret den tidligere tab af denne sang og lavet nogle rettelser i den

Intro:
1x
  (G)   (Em)  (C)   (D)
E:|---3---3---3---3---0---0-------2----|
A:|---3---3---3---3---1---1------3-3---|
D:|-----------------------------2------|
G:|---------------------2---0----------|
H:|-----2-------2---3------------------|
E:|--3------0--------------------------|
1x
  (G)   (Em)  (C)   (D)
E:|---3---3---3---3---0---0-----2------|
A:|---3---3---3---3---1---1-----3------|
D:|-----------------------------2------|
G:|---------------------2---0----------|
H:|-----2-------2---3------------------|
E:|--3------0--------------------------|

Resten af sangen går stort set sådan her, dog spilles d akkorden nogen gange som i introen:
  (G)   (Em)  (C)   (D)
E:|---3---3---3---3---0---0---2---2----|
A:|---3---3---3---3---1---1---3---3----|
D:|------------------------------------|
G:|---------------------2---0---0------|
H:|-----2-------2---3------------------|
E:|--3------0--------------------------|


G              Em          C             D
Vores forældre siger vi må ikke lege med Ole
G              Em           C            D
Han er bare en slem fyr der aldrig går i skole
G          Em         C              D
Det er det samme alle vores forældre siger
G             Em         C              D
Ikke lege med Ole tænker kun på druk og piger

G           Em         C              D
Han drikker bajer' han sniffer lightergas
G                C             D         G
Og nå han rigtig hygger sig så ryger han hash
[ Tab from: http://www.guitaretab.com/m/martin-kristensen/281729.html ]
G                Em     C           D
En gang der var Ole min allerbedste ven
G         Em      C           D
Nu må jeg aldrig lege med ham igen
G               Em    C                  D
For min mor hun synes bestemt han var en bisse
G             Em         C            D
Der hun hørt’ han sås på en fest uden fisse

G           Em         C              D
Han drikker bajer' han sniffer lightergas
G                C             D         G
Og nå han rigtig hygger sig så ryger han hash


G         Em         C          D
Men nu er Ole blevet smit ud af skolen
G                Em         C               D
Fordi han ravede Inger lidt for meget under kjolen
G             Em           C      D
Så nu er det ikke sjovt at gå der mere
    G              Em
Men han kommer nok igen
    C              D  
Når vi rykker op i fjerde


G           Em         C              D
Han drikker bajer' han sniffer lightergas
G                C            D         G
Og nå han rigtig hygger sig så ryger han hash

G               Em          C                      D
Men nogle gange sker det at vi sniger os over’ til Ole
G                 Em   C             D
Nå vores forældre tror vi er taget i skole
G           Em         C            D
Og så kan i tro at der sker ting og sager
G              Em          C             D
For vi drikker ikke sodavand spiser ikke kransekager (nej)


G           Em         C              D
Han drikker bajer' han sniffer lightergas
G                C            D         G
Og nå han rigtig hygger sig så ryger han hash (ja)
G           Em         C              D
Han drikker bajer' han sniffer lightergas
G                C            D         G
Og nå han rigtig hygger sig så ryger han hash

Håber i kan bruge det :)

MVH

AZAK
Related for Ole Sangen tab
Ole Sangen chords by Martin Kristensen